Cifra Club

Aprenda

Last Of My Kind

Alice In Chains

Cifra: Principal (violão e guitarra)
tom: F#
(afinação Db Ab Db Gb Bb Eb)

(intro) (with wah pedal)
Eb|--------------------------------------|
Bb|--------------------------------------|
Gb|--------------------------------------|
Db|--------------------------------------|
Ab|-------4---4-/5---5-------7---5---4---|
Db|--2-/4---4------5-----5/7---5---4-----|

Eb|--------------------------------------|
Bb|--------------------------------------|
Gb|--------------------------------------|
Db|--------------------------------------|
Ab|-------4---4-/5---5-------7---5---4---|
Db|--2-/4---4------5-----5/7---5---4-----|

Eb|--------------------------------------|
Bb|--------------------------------------|
Gb|--------------------------------------|
Db|--------------------------------------|
Ab|-------4---4-/5---5-------7---5---4---|
Db|--2-/4---4------5-----5/7---5---4-----|

Eb|--------------------------------------|
Bb|--------------------------------------|
Gb|--------------------------------------|
Db|--------------------------------------|
Ab|-------4---4-/5---5-------7---8---5---|
Db|--2-/4---4------5-----5/7---8---5-----|

(verse)
Eb|--------------------------------------|
Bb|--------------------------------------|
Gb|--------------------------------------|
Db|--------------------------------------|
Ab|-------4---4-/5---5-------7---5---4---|
Db|--2-/4---4------5-----5/7---5---4-----|

Eb|--------------------------------------|
Bb|--------------------------------------|
Gb|--------------------------------------|
Db|--------------------------------------|
Ab|-------4---4-/5---5-------7---5---4---|
Db|--2-/4---4------5-----5/7---5---4-----|
                                             2x
Eb|--------------------------------------|
Bb|--------------------------------------|
Gb|--------------------------------------|
Db|--------------------------------------|
Ab|-------4---4-/5---5-------7---5---4---|
Db|--2-/4---4------5-----5/7---5---4-----|

Eb|--------------------------------------|
Bb|--------------------------------------|
Gb|--------------------------------------|
Db|--------------------------------------|
Ab|-------4---4-/5---5-------7---8---5---|
Db|--2-/4---4------5-----5/7---8---5-----|

(pre-Chorus)
Eb|--------------------------------------|
Bb|--------------------------------------|
Gb|--------------------------------------|
Db|--5-/7-----7-----7-----7--------------|  3x
Ab|--5-/7-----7-----7-----7--------------|
Db|--5-/7-7-7-7-7-7-7-7-7-7-7-8p7-8-0-5--|
   PM     . .   . .   . .   .

Eb|--------------------------------------|
Bb|--------------------------------------|
Gb|--------------------------------------|
Db|--5-/7-----7-----7-----7--------------|
Ab|--5-/7-----7-----7-----7--------------|
Db|--5-/7-7-7-7-7-7-7-7-7-7-7-8-7-6-5~---|
   PM     . .   . .   . .   .

(chorus)
Eb|----------------------------------------------------------------------|
Bb|----------------------------------------------------------------------|
Gb|--3-------------3---------------3-----------------3-------------------|
Db|--3-2-2-2-2-2-2-3-2-2-2-2-2-2-2-3-2-2-2-2-2-2-2-2-3-2-2-2-------------|  2x
Ab|--1-2-2-2-2-2-2-1-2-2-2-2-2-2-2-1-2-2-2-2-2-2-2-2-1-2-2-2-------------|
Db|----2-2-2-2-2-2---2-2-2-2-2-2-2---2-2-2-2-2-2-2-2---2-2-2-/8-7-6-5~---|
   PM  . . . . . .   . . . . . . .   . . . . . . . .   . .

(intro)
(verse)
(pre-chorus)
(chorus 2x)

(bridge)
Eb|---------------------------------------------------------------|
Bb|---------------------------------------------------------------|
Gb|---------------------------------------------------------------|
Db|--2-0-2-3-2--0-5--3-2-0-2-3-2---2-0-2-3-2--0-7--5-2-0-2-3-2----|  2x
Ab|--2-0-2-3-2--0-5--3-2-0-2-3-2---2-0-2-3-2--0-7--5-2-0-2-3-2----|
Db|--2-0-2-3-2--0-5--3-2-0-2-3-2---2-0-2-3-2--0-7--5-2-0-2-3-2----|

(guitar solo) (with wah pedal)
Eb|--------------------------------------------------------------------------|
Bb|--------------------------------------------------------------------------|
Gb|--7h9p7h9p7h9p7h9p7h9p7h9p7h9p7h9p7---------------------------------------|
Db|------------------------------------7-b8---7-7-5-7b8r7p5------------------|
Ab|---------------------------------------------------------7----------------|
Db|--------------------------------------------------------------------------|

Eb|-------------------------------------------0-0--0-0-0-0-------------------|
Bb|-------------------------------------------3-3-/5-5-5-3-------------------|
Gb|--7h9p7h9p7h9p7h9p7h9p7h9p7h9p7h9p7---------------------------------------|
Db|------------------------------------7-b8----------------------------------|
Ab|--------------------------------------------------------------------------|
Db|--------------------------------------------------------------------------|

Eb|--12-----------------------------------12-------------------------------------|
Bb|--15b17---12------5-----5-5-/7-7-/8-7--15b17---12------5-----5-5-7-7b8r7-5-7~-|
Gb|----------14b16---7b9--------------------------14b16---7b9--------------------|
Db|------------------------------------------------------------------------------|
Ab|------------------------------------------------------------------------------|
Db|------------------------------------------------------------------------------|

(intro)

Eb|----0---------------0-----------------0-------------------0-------------------|
Bb|--3/5-------------3/5---------------3/5-----------------3/5-------------------|
Gb|------------------------------------------------------------------------------|
Db|------2-2-2-2-2-2-----2-2-2-2-2-2-2-----2-2-2-2-2-2-2-2-----2-2-2-------------|  2x
Ab|------2-2-2-2-2-2-----2-2-2-2-2-2-2-----2-2-2-2-2-2-2-2-----2-2-2-------------|
Db|------2-2-2-2-2-2-----2-2-2-2-2-2-2-----2-2-2-2-2-2-2-2-----2-2-2-/8-7-6-5~---|
   PM    . . . . . .     . . . . . . .     . . . . . . . .     . .

Eb|---------------------------------------------------------------------------|
Bb|---------------------------------------------------------------------------|
Gb|---------------------------------------------------------------------------|
Db|--2-2-2-2-2-2-2-2-2-2-2-2-2-2-2-2-2-2-2-2-2-2-2-2-2-2-2-2-2-2-2-2----------|  2x
Ab|--2-2-2-2-2-2-2-2-2-2-2-2-2-2-2-2-2-2-2-2-2-2-2-2-2-2-2-2-2-2-2-2----------|
Db|--2-2-2-2-2-2-2-2-2-2-2-2-2-2-2-2-2-2-2-2-2-2-2-2-2-2-2-2-2-2-2-2----------|
   PM. . . . . . . . . . . . . . . . . . . . . . . . . . . . . . . .

(outro) (with wah pedal)
Eb|---------------------------------------------------------------------------|
Bb|---------------------------------------------------------------------------|
Gb|---------------------------------------------------------------------------|
Db|---------------------------------------------------------------------------|
Ab|-----------5-/7---7---5----------------------5-/7---7---5------------------|
Db|--0-2-2-/3--------------8-7-5-2-2-2-0-2-2-/3--------------8-7-5-7-2-2------|

Eb|---------------------------------------------------------------------------|
Bb|---------------------------------------------------------------------------|
Gb|---------------------------------------------------------------------------|
Db|----------------------------------------------------7b8r7p5---5-7-b8-5-----|
Ab|-----------5-/7---7---5----------------------5-/7-----------7----------7---|
Db|--0-2-2-/3--------------8-7-5-2-2-2-0-2-2-/3-------------------------------|

(repeat with variations until fade out)

| /  slide up
| \  slide down
| b  bend
| h  hammer-on
| p  pull-off
| PM palm mute
| ~  vibrato
Composição de Jerry Cantrell / William DuVall
1.185 exibições
    • ½ Tom
    • A
    • Bb
    • B
    • C
    • Db
    • D
    • Eb
    • E
    • F
    • F#
    • G
    • Ab
  • Adicionar à lista

    0 comentários

    Ver todos os comentários

    Conseguiu tocar?

    0 Tocaram 0 Ainda não

    Grave um vídeo tocando Last Of My Kind e nos envie!

    00:00 / 00:00
    outros vídeos desta música
    repetir qualidade Automático
    Outros vídeos desta música
    00:00 / 00:00
    Automático

    Cifra Club Pro

    Aproveite o Cifra Club com benefícios exclusivos e sem anúncios
    Cifra Club Pro
    Aproveite o Cifra Club com benefícios exclusivos e sem anúncios
    OK