Queen of the Rodeo

Alice In Chains

Composição de: Layne Staley
tom: Ab
(Alice in chains)

h: hammer-on

Main Riff :

e||------------------3--3-3--3--------||
B||------------------4--4-4--4--------||
G||-o----------------3--3-3--3------o-||
D||-o-4--4-4--4-3--3-5--5-5--5-3--3-o-||
A||---4--4-4--4-3--3-6--6-6--6-3--3---||
D||---4--4-4--4-3--3-----------3--3---||

My daddy was a trucker
Left home when I was three
He fell for some dude in dallas
Then it was mom and me
She always wanted a daughter
Well look at what she got
A`hit me, beat me, a faggot I ain`t
But a real man they say I`m not
I´m the queen, queen o the rodeo
Queen, queen of the rodeo

Riff 2:

e|-3-3--2-2--2-----2--2-
B|-4-4--4-4--4-----4--4-
G|-3-3--4-4--4-----4--4-
D|-5-5--4-4--4-----4--4-
A|-6-6--2-2--2-----2--2-
D|----------------------

So cowboy, if you`re look in for lovin`
I ain`t no queer, go fuck a steer

Main Riff  

" I think there´s one over there…”

Riff 3:

e||----------------------------------||
B||----------------------------------||
G||-o------------------------------o-||
D||-o-4-4-4-4-4-3-3-1-1-1-1-1-3-3--o-||
A||---4-4-4-4-4-3-3-1-1-1-1-1-3-3----||
D||---4-4-4-4-4-3-3-1-1-1-1-1-3-3----||

Main Riff

I drink too much, I smoke too much
I`m a human waste
I buy a lot of cheap alcohol
But I`ll tell ya honey, I really hate the taste
I dressed in drag, they call me a fag
But boy, I really don’t care
Cause last night I met your mother, fucker
And I hope ya like to share, cause she did
I`m the queen, queen of the rodeo
Queen, queen of the rodeo

Riff 2

So cowboy, if you`re look in fight
I ain`t no wimp, I scratch and bite

Main Riff

" And I`m gonna kick your ass too…”

Riff 3

Queen, queen of the rodeo
             (pausa)
        FUCK YOU!

Main Riff

Queen, queen of the rodeo
Queen, queen of the rodeo

Outro:
(Acrescente ao Main Riff em algumas partes) 

e|--------------
B|--------------
G|--------------
D|--------------
A|------4-------
D|-0h4----------

Obs: Esta cifra é da versão ao vivo, que tem algumas diferenças em
relação a versão de estúdio que é cheia de solinhos e parece estar
em outro tom. Também há pequenas mudanças na letra.
O Jerry Cantrell sempre afina a guitarra meio tom abaixo, mas esta
música eu prefiro tocar assim. 
Página 1 / 1

Letras e título
Acordes e artista

resetar configurações
OK