Cifra Club

Aprenda

A Vitória de Ana

Alice Maciel

Cifra: Principal (violão e guitarra)
tom: F
(intro) F  Bb  C  F C

(solo junto com a intro)
E|-------5-8----8-6----5----------5---------------------|E
B|---6-8------------------8----6-8--8-6-----------------|B
G|------------------------------------------------------|G
D|------------------------------------------------------|D
A|------------------------------------------------------|A
E|------------------------------------------------------|E

F       C  Dm
ANA MULHER ANGUSTIADA
       Bb        C9
A SUA INMIGA    A IRRITAVA
        Dm      Dm/C
POREM O SENHOR TINHA LHE CERRADO A MADRE
  Bb9       C
NAO PODIA TER FILHOS..
 F
O SACERDOTE ELI
  C
NAO A COMPREENDEU
       Dm
E DISSE: ATE QUANDO
      Bb9
ESTARÁS EMBRIAGADA?
  C9    
POREM ANA RESPONDEU
   Dm    Dm/C
DISSE NAO MEU SENHOR
   Bb9   C
SOU UMA MULHER..
   F    C
ATRIBULADA DE ESPIRITO
     Dm
NAO TENHO BEBIDO
        Bb9
BEBIDA FORTE OU VINHO
  C9    
POREN TENHO DERRAMADO
    Dm   Dm/C  Bb9    C
A MINHA ALMA PERANTE  O SENHOR.
   F
ENTAO RESPONDEU ELI
     C9
E DISSE: VAI EM PAZ
       Bb
QUE O DEUS DE ISRAEL
      C9
LHE CONCEDA A TUA PETIÇAO
   F        C9
E ANA LEVANTOU DE MADRUGADA ADOROU
   Bb
ELCANA CONHECEU A ANA
     C9
E DELA O SENHOR SE LEMBROU...

(refrão)

  F
ANA CHOROU
  C    Dm  D7
AOS PES DO SENHOR
  Gm    Gm/F     C
ANA OROU E A ORAÇAO DEUS OUVIU
  F      C   Dm
A MADRE DE ANA O SENHOR ABRIU
  Am7    Bb   F/A  Gm
E UM FILHO NASCEU PRA SER DO SENHOR
   C
PARA SEMPRE
  F     C    Dm
A MADRE DE ANA O SENHOR ABRIU
   Am7    Bb   F/A  Gm
E UM FILHO NASCEU  PRA SER DO SENHOR
   C
PARA SEMPRE DO SENHOR..

E|-------5-8----8-6----5----------5-----------------0------------5--------|E
B|---6-8------------------8----6-8--8-6----6-5-3------6-3--3-5-6---8--6---|B
G|------------------------------------------------------------------------|G
D|------------------------------------------------------------------------|D
A|------------------------------------------------------------------------|A
E|------------------------------------------------------------------------|E

(solo base) F Bb9 C9 F
            F C/E Dm
            Dm Dm/C Bb9 C

ENTAO RESPONDEU ELI...

(final)
  F
ANA CHOROU
  C    Dm  D7
AOS PES DO SENHOR
  Gm    Gm/F     C
ANA OROU E A ORAÇAO DEUS OUVIU
  F      C   Dm
A MADRE DE ANA O SENHOR ABRIU
  Am7    Bb   F/A  Gm
E UM FILHO NASCEU PRA SER DO SENHOR
   C
PARA SEMPRE
  F     C    Dm
A MADRE DE ANA O SENHOR ABRIU
   Am7    Bb   F/A  Gm
E UM FILHO NASCEU  PRA SER DO SENHOR
   C
PARA SEMPRE DO SENHOR..

F  C9   Dm   Dm/C    Bb9    C     F
Ô,  Ô,  Ô,  Ô,    Ô,Ô, PARA SEMPRE DO SENHOR (bis)
Composição de Alice Maciel / Jo
Colaboração e revisão:
  • José Melo
  • rosane iadanza
  • davi almeida
45.145 exibições
    • ½ Tom
    • A
    • Bb
    • B
    • C
    • Db
    • D
    • Eb
    • E
    • F
    • F#
    • G
    • Ab
  • Adicionar à lista

    0 comentários

    Ver todos os comentários
    00:00 / 00:00
    Outros vídeos desta música
    Repetir Qualidade Automático
    Outros vídeos desta música
    00:00 / 00:00
    Automático

    Cifra Club Pro

    Aproveite o Cifra Club com benefícios exclusivos e sem anúncios
    Cifra Club Pro
    Aproveite o Cifra Club com benefícios exclusivos e sem anúncios
    OK