Cifra Club

Aprenda

O Que Deus Tem Pra Ti

Alice Maciel

Cifra: Principal (violão e guitarra)
tom: D
Intro 4x: D A Bm G A

E|--------------------------------------------------------|
B|------------------------------12-12-10-10-12------------|
G|----7-9-11-7-9-9-11-12-9-11----------------11-----------|
D|----------------------------9---------------------------|
A|--------------------------------------------------------|
E|--------------------------------------------------------|

E|--------------------------------------------------------|
B|------------------------------12-12-10------------------|
G|----7-9-11-7-9-9-11-12-9-11------------12-12-11---------|
D|----------------------------9---------------------------|
A|--------------------------------------------------------|
E|--------------------------------------------------------|

E|--------------------------------------------------------|
B|------------------------------12-12-10-10-12------------|
G|----7-9-11-7-9-9-11-12-9-11----------------11-----------|
D|----------------------------9---------------------------|
A|--------------------------------------------------------|
E|--------------------------------------------------------|

E|--------------------------------------------------------|
B|------------------------------12-12-10------------------|
G|----7-9-11-7-9-9-11-12-9-11------------12-12-11---------|
D|----------------------------9---------------------------|
A|--------------------------------------------------------|
E|--------------------------------------------------------|

D              A  Bm     G             A       D
Quem te perseguiu, não sabe o que Deus tem pra ti,
              A   Bm     G             A       D
e quem te agrediu, não sabe o que Deus tem pra ti,
              A   Bm      G            A         D
e quem te fez cair, não sabe o que Deus tem pra ti,
                 A  Bm      G         A           D
e quem te fez chorar, não sabe o que Deus tem pra ti.
                  A         Bm       G   A      D
as coisas que o olho não viu, e o ouvido não ouviu,
                  A         Bm       G           A        D
as coisas que o olho não viu, e não subiu ao coração do homem,
                  A                  G         A                    D
são as que Deus preparou, para os que o amam, para os que lhe dão louvor
                    A                Bm          G         A    D
O que Deus tem pra ti ninguém vai tomar, é teu e meu Pode esperar, (4x)

Intro 4x: D A Bm G A

E|--------------------------------------------------------|
B|------------------------------12-12-10-10-12------------|
G|----7-9-11-7-9-9-11-12-9-11---------------11------------|
D|----------------------------9---------------------------|
A|--------------------------------------------------------|
E|--------------------------------------------------------|

E|--------------------------------------------------------|
B|------------------------------12-12-10------------------|
G|----7-9-11-7-9-9-11-12-9-11------------12-12-11---------|
D|----------------------------9---------------------------|
A|--------------------------------------------------------|
E|--------------------------------------------------------|

D              A  Bm     G             A       D
Quem te perseguiu, não sabe o que Deus tem pra ti,
              A   Bm     G             A       D
e quem te agrediu, não sabe o que Deus tem pra ti,
              A   Bm      G            A         D
e quem te fez cair, não sabe o que Deus tem pra ti,
                 A  Bm      G         A           D
e quem te fez chorar, não sabe o que Deus tem pra ti.
                  A         Bm       G   A      D
as coisas que o olho não viu, e o ouvido não ouviu,
                  A         Bm       G           A        D
as coisas que o olho não viu, e não subiu ao coração do homem,
                  A                  G         A                    D
são as que Deus preparou, para os que o amam, para os que lhe dão louvor
                    A                Bm          G         A    D
O que Deus tem pra ti ninguém vai tomar, é teu e meu Pode esperar, (4x)
Compositor não encontrado.
Colaboração e revisão:
  • ALEXSANDRO ARAUJO
3.161 exibições
    • ½ Tom
    • A
    • Bb
    • B
    • C
    • Db
    • D
    • Eb
    • E
    • F
    • F#
    • G
    • Ab
  • Adicionar à lista

    0 comentários

    Ver todos os comentários
    00:00 / 00:00
    Outros vídeos desta música
    Repetir Qualidade Automático
    Outros vídeos desta música
    00:00 / 00:00
    Automático

    Cifra Club Pro

    Aproveite o Cifra Club com benefícios exclusivos e sem anúncios
    Cifra Club Pro
    Aproveite o Cifra Club com benefícios exclusivos e sem anúncios
    OK