Cifra Club

Smooth Criminal

Alien Ant Farm

Tab de baixo: Principal
exibições 13.061
Introdução

parte 01 de 01 ( Tocar 4x )

G|--------------------------------------------|
D|--------------------------------------------|
A|-0--0-0-0-0---0--2-2-0-2-3-3--3-3-2---------|
E|------------3-----------------------3-------|
B|--------------------------------------------|

Primeira parte

As he came into the window...

parte 01 de 01 ( Tocar 4x )

G|--------------------------------------------|
D|--------------------------------------------|
A|-0--0-0-0-0---0--2-2-0-2-3-3--3-3-2---------|
E|------------3-----------------------3-------|
B|--------------------------------------------|

Pré - Refrão 01

Annie, are you ok? Are you ok?
Parte 01 ( tocar 2x ) de 03 
G|--------------------------------------------|
D|---------------3--------3-------5-----------|
A|--------------------------------------------|
E|-1-1-1--1-1-1----1-1-1-----0-3----0---------|
B|--------------------------------------------|

Parte 02 de 03

G|--------------------------------------------|
D|---------------3--------3-------------------|
A|--------------------------------------------|
E|-1-1-1--1-1-1----1-1-1-----1----------------|
B|-----------------------------1--------------|

Parte 03 de 03

G|--------------------------------------------|
D|---------------3----------------------------|
A|--------------------------------------------|
E|-1-1-1--1-1-1----1-0--3-0-3-----------------|
B|--------------------------------------------|

Refrão

Annie are you...will you tell us that you're...

Parte 01 de 04

G|--------------------------------------------|
D|--------------------------------------------|
A|-0--0-0-0-0-0-0-----------------------------|
E|-----------------3-3--3-3-1-1--1-1-3-1-3----|
B|--------------------------------------------|

G|--------------------------------------------|
D|--------------------------------------------|
A|-0--0-0-0-0-0-0-----------------------------|
E|-----------------3-3--3-3-1-1--1-1-0-0-3----|
B|--------------------------------------------|

Parte 02 de 04

G|--------------------------------------------|
D|--------------------------------------------|
A|-0--0-0-0-0-0-0-----------------------------|
E|-----------------3-3--3-3-1-1--1-1-3-1-3----|
B|--------------------------------------------|

G|--------------------------------------------|
D|--------------------------------------------|
A|-0--0-0-0-0-0-0-----------------------------|
E|-----------------3-3--3-3-1-1--1-1-0-0-3----|
B|--------------------------------------------|

Parte 03( tocar 2x ) de 04

G|--------------------------------------------|
D|---------------3--------3-------5-----------|
A|--------------------------------------------|
E|-1-1-1--1-1-1----1-1-1-----0-3----0---------|
B|--------------------------------------------|

Parte 04 de 04

G|--------------------------------------------|
D|---------------3--------3-------------------|
A|--------------------------------------------|
E|-1-1-1--1-1-1----1-1-1-----1-3-3-3-1-0------|
B|--------------------------------------------|

G|--------------------------------------------|
D|--------------------------------------------|
A|--------------------------------------------|
E|-0-0--0-------------------------------------|
B|--------------------------------------------|

Introdução 2

parte 01 de 01 ( Tocar 2x )

G|--------------------------------------------|
D|--------------------------------------------|
A|-0--0-0-0-0---0--2-2-0-2-3-3--3-3-2---------|
E|------------3-----------------------3-------|
B|--------------------------------------------|

Segunda parte

So they came into the outway...

parte 01 de 01 ( Tocar 2x )

G|--------------------------------------------|
D|--------------------------------------------|
A|-0--0-0-0-0---0--2-2-0-2-3-3--3-3-2---------|
E|------------3-----------------------3-------|
B|--------------------------------------------|

Pré - Refrão 02

Annie, are you ok? Are you ok?
Parte 01 ( tocar 2x ) de 03 
G|--------------------------------------------|
D|---------------3--------3-------5-----------|
A|--------------------------------------------|
E|-1-1-1--1-1-1----1-1-1-----0-3----0---------|
B|--------------------------------------------|

Parte 02 de 03

G|--------------------------------------------|
D|---------------3--------3-------------------|
A|--------------------------------------------|
E|-1-1-1--1-1-1----1-1-1-----1----------------|
B|-----------------------------1--------------|

Parte 03 de 03

G|--------------------------------------------|
D|---------------3----------------------------|
A|--------------------------------------------|
E|-1-1-1--1-1-1----1-0--3-0-3-----------------|
B|--------------------------------------------|

Segundo Refrão

Annie are you...will you tell us that you're...

Parte 01 de 03

G|--------------------------------------------|
D|--------------------------------------------|
A|-0--0-0-0-0-0-0-----------------------------|
E|-----------------3-3--3-3-1-1--1-1-3-1-3----|
B|--------------------------------------------|

G|--------------------------------------------|
D|--------------------------------------------|
A|-0--0-0-0-0-0-0-----------------------------|
E|-----------------3-3--3-3-1-1--1-1-0-0-3----|
B|--------------------------------------------|

Parte 02 de 03

G|--------------------------------------------|
D|--------------------------------------------|
A|-0--0-0-0-0-0-0-----------------------------|
E|-----------------3-3--3-3-1-1--1-1-3-1-3----|
B|--------------------------------------------|

G|--------------------------------------------|
D|--------------------------------------------|
A|-0--0-0-0-0-0-0-----------------------------|
E|-----------------3-3--3-3-1-1--1-1-0-0-3----|
B|--------------------------------------------|

Parte 03 de 03

G|--------------------------------------------|
D|---------------3--------3-------------------|
A|--------------------------------------------|
E|-1-1-1--1-1-1----1-1-1-----1-3-3-3-1-0------|
B|--------------------------------------------|

G|--------------------------------------------|
D|--------------------------------------------|
A|--------------------------------------------|
E|-0-0--0-------------------------------------|
B|--------------------------------------------|

Introdução 3

parte 01 de 01 ( Tocar 4x )

G|--------------------------------------------|
D|--------------------------------------------|
A|-0--0-0-0-0---0--2-2-0-2-3-3--3-3-2---------|
E|------------3-----------------------3-------|
B|--------------------------------------------|

Solo de Guitarra

parte 01 de 01 ( Tocar 4x )

G|--------------------------------------------|
D|--------------------------------------------|
A|-0--0-0-0-0---0--2-2-0-2-3-3--3-3-2---------|
E|------------3-----------------------3-------|
B|--------------------------------------------|

Terceiro Refrão

Annie are you...will you tell us that you're...

Parte 01 de 04

G|--------------------------------------------|
D|--------------------------------------------|
A|-0--0-0-0-0-0-0-----------------------------|
E|-----------------3-3--3-3-1-1--1-1-3-1-3----|
B|--------------------------------------------|

G|--------------------------------------------|
D|--------------------------------------------|
A|-0--0-0-0-0-0-0-----------------------------|
E|-----------------3-3--3-3-1-1--1-1-0-0-3----|
B|--------------------------------------------|

Parte 02 de 04

G|--------------------------------------------|
D|--------------------------------------------|
A|-0--0-0-0-0-0-0-----------------------------|
E|-----------------3-3--3-3-1-1--1-1-3-1-3----|
B|--------------------------------------------|

G|--------------------------------------------|
D|--------------------------------------------|
A|-0--0-0-0-0-0-0-----------------------------|
E|-----------------3-3--3-3-1-1--1-1-0-0-3----|
B|--------------------------------------------|

Parte 03 de 04

G|--------------------------------------------|
D|--------------------------------------------|
A|-0--0-0-0-0-0-0-----------------------------|
E|-----------------3-3--3-3-1-1--1-1-3-1-3----|
B|--------------------------------------------|

G|--------------------------------------------|
D|--------------------------------------------|
A|-0--0-0-0-0-0-0-----------------------------|
E|-----------------3-3--3-3-1-1--1-1-0-0-3----|
B|--------------------------------------------|

Parte 04 de 04

G|--------------------------------------------|
D|--------------------------------------------|
A|-0--0-0-0-0-0-0-----------------------------|
E|-----------------3-3--3-3-1-1--1-1-3-1-3----|
B|--------------------------------------------|

G|--------------------------------------------|
D|--------------------------------------------|
A|-0--0-0-0-0-0-0-----------------------------|
E|-----------------3-3--3-3-1-1--1-1-0-0-3----|
B|--------------------------------------------|

Introdução 4 ( Final )

parte 01 de 02 ( Tocar 2x )

G|--------------------------------------------|
D|--------------------------------------------|
A|-0--0-0-0-0---0--2-2-0-2-3-3--3-3-2---------|
E|------------3-----------------------3-------|
B|--------------------------------------------|

Parte 02 de 02

G|--------------------------------------------|
D|--------------------------------------------|
A|-0--0-0-0-0-0-0-----------------------------|
E|-----------------3-3--3-3-1-1--1-1-0-0-3----|
B|--------------------------------------------|

G|--------------------------------------------|
D|--------------------------------------------|
A|-0--0-0-0-0---0--2-2-0-2-3-3--3-3-2---------|
E|------------3-----------------------3-------|
B|--------------------------------------------|
Composição: Michael JacksonColaboração e revisão:
  • Ricardo Reis

0 comentários

    mostrar mais comentários

    Conseguiu tocar?

    0tocaram0ainda não

    Grave um vídeo tocando Smooth Criminal e mande pra gente!

    00:00 / 00:00
    outros vídeos desta música
    repetirqualidadeautomática
    Outro vídeos desta música
      00:00 / 00:00
      automática
      Capítulos
      • Tocando a música
      • Dicas Iniciais / Equipamentos
      • Introdução
      • Primeira Parte
      • Pré-Refrão - Parte 1 de 3
      • Pré-Refrão - Parte 2 de 3
      • Pré-Refrão - Parte 3 de 3
      • Refrão - Parte 1 de 4
      • Refrão - Parte 2 de 4
      • Refrão - Parte 3 de 4
      • Refrão - Parte 4 de 4
      • Segundo Refrão - Parte 1 de 3
      • Segundo Refrão - Parte 2 de 3
      • Segundo Refrão - Parte 3 de 3
      • Terceiro Refrão - Parte 1 de 4
      • Terceiro Refrão - Parte 2 de 4
      • Terceiro Refrão - Parte 3 de 4
      • Terceiro Refrão - Parte 4 de 4
      • Introdução 4 - Parte 1 de 2
      • Introdução 4 - Parte 2 de 2
      • Encerramento
      • Ficha Técnia
      OK