A Oferta Da Viuvinha

Aline Barros

Composição de: Fernand Lafontaine
tom: D
Intro: G D A Bm
   
Solo Intro:  
E|-12-14-15-15-14-14-12-14~-----12-14-12--------------|
B|---------------------------15----------10-10/12-12~-|
G|----------------------------------------------------|
D|----------------------------------------------------|
A|----------------------------------------------------|
E|----------------------------------------------------|

E|-12-14-15-15-14-14-12-14~---------------------------|
B|----------------------------------------------------|
G|----------------------------------------------------|
D|----------------------------------------------------|
A|----------------------------------------------------|
E|----------------------------------------------------|

E|----12-14-17--17-17--17--17--17-17~-----------------|
B|-15-------------------------------------------------|
G|----------------------------------------------------|
D|----------------------------------------------------|
A|----------------------------------------------------|
E|----------------------------------------------------|

 D                 A
A viuvinha pôs na caixinha
                     D
Sua moedinha, o seu melhor
                     A
E quem oferta com alegria
                       D
Junta o tesouro muito maior
       G              D
Jesus se agrada, Jesus se agrada
     A               D
Da ofertinha da criançada
       G                 D
Das moedinhas fazendo assim:
              A                  D
Tirilim, tim, tim. Tirilim, tim, tim.
                                 A
Tirilim, tim, tim. Tirilim, tim, tim.
                                 D
A oferta vai caindo dentro da caixinha
                                 A
Tirilim, tim, tim. Tirilim, tim, tim.
          G                 A       D
Eu quero um coração igual o da viuvinha
       G              D
Jesus se agrada, Jesus se agrada
     A               D
Da ofertinha da criançada
       G                 D
Das moedinhas fazendo assim:
              A                  D
Tirilim, tim, tim. Tirilim, tim, tim.
                                 A
Tirilim, tim, tim. Tirilim, tim, tim.
                                 D
A oferta vai caindo dentro da caixinha
                                 A
Tirilim, tim, tim. Tirilim, tim, tim.
          G                 A       D
Eu quero um coração igual o da viuvinha

              E                   B
Tirilim, tim, tim. Tirilim, tim, tim.
                                 E
A oferta vai caindo dentro da caixinha
                                 B
Tirilim, tim, tim. Tirilim, tim, tim.
          A                 B       E
Eu quero um coração igual o da viuvinha
Página 1 / 1

Letras e título
Acordes e artista

resetar configurações
OK