Correr Para Deus

Aline Barros

Composição de: Emerson Pinheiro
tom: E
Intro 2x: C#m  E  B
Riff 1:
E|-------------------------------------|
B|-------------------------------------|
G|----------------------------6--------|   (2x)
D|------------4-2----------------------|
A|2-4-2-4-2-4-----2-4-2-4-2-4----------|
E|-------------------------------------|

Riff 2:
E|--------------------------------|------------------------------------||
B|------------9----9-7----9-7-----|-------------9-----9-7-----9-7------||
G|4-4/6-6-8-9--4-4----4-4-----4-4-|-6-4-6-6-8-9---4-4-----4-4-----4-4--||
D|--------------------------------|------------------------------------||
A|--------------------------------|------------------------------------||
E|--------------------------------|------------------------------------||

 C#            A       C#        A
Descerá sobre mim, a unção do Senhor
          E        B/D#    C#m       F#9
Sinto em mim fogo consumidor, já arder.
      C#          A          C#          A
Vou pedir, vou buscar, vou sonhar, conquistar
     E          B/D#      C#m           B
Derramar minha vida no altar, e te adorar.

       E                        A        G#m
Vou correr, para Deus, como um rio corre para o mar
   F#m        B
Eu corro para Ti.
       E                      A            G#m
Vou viver, só pra Deus, regressar ao meu lugar
         F#m           B
E ao primeiro amor voltar.

 Solo: C#m  E  B
E|-7-5-4-----4-0---2---7------------------|
B|-------5-------2---0---9h10/9------9----|
G|---------4--------------------9------11-|
D|--------------------------------11------|
A|----------------------------------------|
E|----------------------------------------|

C#m              E                B
   Descerá sobre ti, descerá sobre ti, descerá sobre ti. (4x)
       E
Vou correr...
Página 1 / 1

Letras e título
Acordes e artista

resetar configurações
OK