Cifra Club

Ressuscita-me

Aline Barros

Cifra: Versão 8
exibições 857
Tom: D
Intro
    D                 A
E|-5-0-----0-2-3-5-3---------------| 
B|-------------------3-0-----------| 
G|---------------------------------| 
D|---------------------------------| 
A|---------------------------------| 
E|---------------------------------| 

          Bm
E|-3-0-2-3-2-----------------------| 
B|---------------------------------| 
G|---------------------------------| 
D|---------------------------------| 
A|---------------------------------| 
E|---------------------------------| 
    G
E|---------------------------------| 
B|-3--2--0--3--3-------------------| 
G|---------------------------------| 
D|---------------------------------| 
A|---------------------------------| 
E|---------------------------------| 

ou
(Melhor com guitarra)
E|----------------------------------------------------------------------------|
B|-------------------------------------------------------------------15-------|
G|-8/14~~--------------------------------14-----------------------------------|
D|-------------19/14~~------~14-16-17-----17-----15/12------------------------|
A|----------------------------------------------------------------------------|
E|----------------------------------------------------------------------------|

E|----------------------------------------------------------------------------|
B|-9/12-9/12--9/12----9-11-12-11~~~~------------------------------------------|
G|----------------------------------------------------------------------------|
D|----------------------------------------------------------------------------|
A|----------------------------------------------------------------------------|
E|----------------------------------------------------------------------------|

E|----------------------------------------------------------------------------|
B|----------------------------------------------------------------------------|
G|----------------------------------------------------------------------------|
D|--12-11--10-12~~--8/12------------------------------------------------------|
A|----------------------------------------------------------------------------|
E|----------------------------------------------------------------------------|

Vocalização

    D                            A
E|-2-2-2-2-2--0-0---0--------------| 
B|----------------3---2-0----------| 
G|------------------------2--------| 
D|---------------------------------| 
A|---------------------------------| 
E|---------------------------------| 
 
    Bm                  G
E|--------------0-2----------------| 
B|-3-3-3-3-3-3------3-0-0----------| 
G|---------------------------------| 
D|---------------------------------| 
A|---------------------------------| 
E|---------------------------------| 
 
    D                      A
E|-2-2-2-2-2-2--0-0-----0--------------------------------| 
B|-------------------3-----------------------------------| 
G|-------------------------------------------------------| 
D|-------------------------------------------------------| 
A|-------------------------------------------------------| 
E|-------------------------------------------------------| 
                         Bm
E|-2-2-2-2-2-2-2-0-0-----0-------------------------------| 
B|--------------------3-----3----------------------------| 
G|-------------------------------------------------------| 
D|-------------------------------------------------------| 
A|-------------------------------------------------------| 
E|-------------------------------------------------------| 
                       G   G  F#m  Em
E|-------------0-2-5-5-----------------------------------| 
B|-3-3-3-3-3-3---------3---------------------------------| 
G|-------------------------------------------------------| 
D|-------------------------------------------------------| 
A|-------------------------------------------------------| 
E|-------------------------------------------------------| 
         B      D
E|-3-3-3-3-2-2-2-0-2-------------------------------------| 
B|-------------------------------------------------------| 
G|-------------------------------------------------------| 
D|-------------------------------------------------------| 
A|-------------------------------------------------------| 
E|-------------------------------------------------------| 
        A                         G
E|-2-2-2-2-0-0-0---------------3-3-3-3-3-2-2-------------| 
B|---------------3-3-3-3-3-3-3---------------------------| 
G|-------------------------------------------------------| 
D|-------------------------------------------------------| 
A|-------------------------------------------------------| 
E|-------------------------------------------------------| 
                                         D                D G C#m Bm
E|---------0-0-0-0-0-----------------0-0-0-0-0-0---0-----| 
B|-3-3-3-3-----------3-3-3-3-3-3-3-3------------3--------| 
G|-------------------------------------------------------| 
D|-------------------------------------------------------| 
A|-------------------------------------------------------| 
E|-------------------------------------------------------| 
 
E|-3-2-3-2-3-2-3-5-5-------------------------------------| 
B|-------------------------------------------------------| 
G|-------------------------------------------------------| 
D|-------------------------------------------------------| 
A|-------------------------------------------------------| 
E|-------------------------------------------------------| 
  Bm
E|-----------5----5-3-3--2-2-0-0-0-2-3-3-2-0-2-3-2-0-2-0-| 
B|-3-3-3-3-3--3-3----------------------------------3----3| 
G|-------------------------------------------------------| 
D|-------------------------------------------------------| 
A|-------------------------------------------------------| 
E|-------------------------------------------------------| 

E|-----------5-----7-5-5-5-0-----------------------------| 
B|-3-3-3-3-3---3-3---------------------------------------| 
G|-------------------------------------------------------| 
D|-------------------------------------------------------| 
A|-------------------------------------------------------| 
E|-------------------------------------------------------| 
 
E|-0-0-0-2-3-3-2-0-2-3-2-3-2-0---------------------------| 
B|-----------------------------3-3-2-0-3-3---------------| 
G|-------------------------------------------------------|
D|-------------------------------------------------------| 
A|-------------------------------------------------------| 
E|-------------------------------------------------------|
Acordes para:
    Composição: Anderson FreireColaboração e revisão:
    • Paulo Gois

    0 comentários

      mostrar mais comentários

      Conseguiu tocar?

      1tocaram0ainda não

      Grave um vídeo tocando Ressuscita-me e mande pra gente!

      00:00 / 00:00
      outros vídeos desta música
      repetirqualidadeautomática
      Outro vídeos desta música
        00:00 / 00:00
        automática
        OK