Enviar cifraEntrar

Ressuscita-me

Aline Barros

Cifra: Simplificada-2
exibições 23.365
Tom: D
Intro: 
 

          C                 G       Bb
E|--5-------0-2-3--5--3-------3------------| 
B|--5---5-----------------3---3----3-------| 
G|--0-0---0-------------0---0-0--0---------| 
D|-----------------------------------------| 
A|--3-------3---------2-------1------------| 
E|-----------------------------------------| 

 
 

                      D       A          D
E|-3p2-0-2-2h3--2--------------------------| 
B|--------------3---3---2h3p2--2h3-3-------| 
G|--------------2-2--2--2----4-----2-------| 
D|----------------------2----------0-------| 
A|--------------0-------0------------------| 
E|-----------------------------------------| 

 
D9              D              A     A4
  Mestre eu preciso de um milagre 
Bm                             G
  Transforma minha vida, o meu estado 
D9                 D                 A9
  Faz tempo que não vejo a luz do dia 
                     A             Bm
Estão tentando sepultar minha alegria 
                               G       D\F#      Em
Tentando ver meus sonhos cancelados 
 
Em       B\Eb       D9                 A\C#       G
Lázaro ouviu a Sua voz, quando aquela pedra removeu 
                   Em7    D        A
Depois de quatro dias ele reviveu 
Bm               A                G
Mestre, não há outro que possa fazer 
                     D\F#               Em
Aquilo que só o Teu nome tem todo poder 
            G              A      A4
Eu preciso tanto de um milagre 
Estrofes: 
 

         D  A       A        Bm
E|-2---------------------------------------| 
B|-3--3-------2----------------3-----------| 
G|-2------2---2---2--------4---4---4-------| 
D|-0----2---2---2---2----4---4---4---4-----| 
A|----0----------------2-------------------| 
E|-----------------------------------------| 

 
 

         G
E|-----------------------------------------| 
B|-----3------3-3-3-3-3--------------------| 
G|-----0------0-2h4-0-2--------------------| 
D|---0------0------------------------------| 
A|-----------------------------------------| 
E|-3---------------------------------------| 

 
 

         D  A       A        Bm
E|-2---------------------------------------| 
B|-3--3-------2----------------3-----------| 
G|-2------2---2---2--------4---4---4-------| 
D|-0----2---2---2---2----4---4---4---4-----| 
A|----0----------------2-------------------| 
E|-----------------------------------------| 

 
 

         G             D     Em         Em
E|-----------------------------------------| 
B|-----3----3----3----------0----------4---| 
G|-----0----0----2--------0---0------4----4| 
D|---0---0----0----0----2-------2--4-------| 
A|--------------------------------6--------| 
E|-3--------3----2----0--------------------| 

 
 

         D           A
E|-----------------------------------------| 
B|-------3-----------2---------------------| 
G|-----4---4-------2---2-------------------| 
D|---4-------4---2-------2-----------------| 
A|-5-----------4---------------------------| 
E|-----------------------------------------| 

 
 

         G                      D            A
E|------------------------2-2--------------| 
B|------3--3-3-3-3-3-3-3--3---3-----3----2-| 
G|----0----0-0-0-0-0-0-0--2-----2--2----2--| 
D|---0-----0-0-0-0-0-0-0--0-------0--------| 
A|------------------------------------4----| 
E|-3-------3-3-3-3-3-3-3-------------------| 

 
         ? ? ? ? ? ? ? 
 

         Bm          Bm           G
E|-----------------------------------------| 
B|-------3-----------3-----------3---------| 
G|-----2---2-------2---2--------2---2------| 
D|---4------4----4-------4----0-------0----| 
A|-2-----------0---------------------------| 
E|--------------------------3--------------| 

 
 

         D             Em                 A  A
E|-----------------------------------------| 
B|-------3-----------3-----3---3----3--2---| 
G|-----2---2-------0---0---0---0----2--2---| 
D|---0-------0----2-----2----3---3--2--2---| 
A|----------------------------------0--0---| 
E|-2------------0----------0---------------| 

 
Refrão: 
              D
Remove minha pedra 
               A9   A4
Me chama pelo nome 
               Bm
Muda minha história 
                    G
Ressuscita os meus sonhos 
                  D9   G
Transforma minha vida 
             A    A4
Me faz um milagre 
               C
Me toca nessa hora 
               G
Me chama para fora 
 A4    A      D
Ressuscita-me 
 
Repete Primeira Parte: 
D9             D               A9     A4
  Mestre eu preciso de um milagre 
Bm                         A9    G
  Transforma minha vida, o meu estado 
D9                  D                A9
  Faz tempo que não vejo a luz do dia 
                     A    A4     Bm
Estão tentando sepultar minha alegria 
                               G     D\F#    Em
Tentando ver meus sonhos cancelados 
 
Em       B\Eb      D9                 A\C#      G
Lázaro ouviu a Sua voz, quando aquela pedra removeu 
                  Em7         D      A9
Depois de quatro dias ele reviveu 
Bm              A                G
Mestre, não há outro que possa fazer 
                     DF#               Em
Aquilo que só o Teu nome tem todo poder 
           G               A      A4
Eu preciso tanto de um milagre 
 
Repete Refrão: 
Refrão: 
              D
Remove minha pedra 
               A9   A4
Me chama pelo nome 
               Bm
Muda minha história 
      A9            G
Ressuscita os meus sonhos 
                  D   G
Transforma minha vida 
             A9    A4
Me faz um milagre 
               C
Me toca nessa hora 
               G
Me chama para fora 
 A4   A    D
Ressuscita-me 
 
( G    A     )
 
   D
Tu és a própria vida 
   A
A força que há em mim 
      Bm
Tu és o filho de Deus 
       G                A
Que me ergue pra vencer 
 D
Senhor de tudo em mim 
 
   A
Já ouço a Tua voz 
       Bm
Me chamando pra viver 
        G
Uma história de poder! 
 
Refrão: 
             E
Remove minha pedra 
               B9
Me chama pelo nome 
               C#m
Muda minha história 
      B9           A9
Ressuscita os meus sonhos 
                  E     A9
Transforma minha vida 
             B9
Me faz um milagre 
               D
Me toca nessa hora 
               A9
Me chama para fora  (repete) 
 B9         E9
Ressuscita-me 
 
Final: D      A\C#      A     B9      E9
 
               E9
... Ressucita-me
  • 1
  • 2
  • 3
  • 4
  • 5
  • 6
  • 7
  • 8
  • 9
  • 10
  • 11
  • 12
    Acordes para:
      Composição: Anderson FreireColaboração e revisão:
      • italo
      • Elder

      0 comentários

        mostrar mais comentários

        Conseguiu tocar?

        1tocaram0ainda não

        Grave um vídeo tocando Ressuscita-me e mande pra gente!

        00:00 / 00:00
        outros vídeos desta música
        repetirqualidadeautomática
        • automática
        Outro vídeos desta música
          00:00 / 00:00
          automática
          • automática
          fecharplay/pause subir/descer velocidade
            Acordes para:violão e guitarra
            acordes
            fechar
            OK