Cifra Club

Sonda-me Usa-me

Aline Barros

Cifra: Istrumental (violão e guitarra)
tom: G
[Intro]

E|---8-8--10-10----8-8--10-12-10-----8-8--10--12~13-12--10---8-----10-8-7-8--|
B|-8------------8-----------------8-----------8------------------------------|
G|---------------------------------------------------------------------------|
D|---------------------------------------------------------------------------|
A|---------------------------------------------------------------------------|
E|---------------------------------------------------------------------------|

E|---------------------------------------------------------------------------|
B|----------------------5~6-5------------------------------------------------|
G|----5-5--7-7--5-------7--5-----------5-7- 5------------------7-5-4---------|
D|--5--------------------------5~7----------------5~7------------------------|
A|---------------------------------------------------------------------------|
E|---------------------------------------------------------------------------|

Transforma-me conforme a Tua Palavra 
E enche-me, até que em mim
Se ache só a Ti

E|---------------------------------------------------------------------------|
B|---------------------------------5~6-5-----------------------------6~7-6---|
G|---------5 5---7---7---5--------------------------5-5--7-7~9 7-----9-7-5---|
D |---5 5-----------------------------------5~7------------------------------|
A|---------------------------------------------------------------------------|
E|---------------------------------------------------------------------------|

Então Usa-me , Senhor! Usa-me
E|---------------------------------------------------------------------------|
B|--------------- 6~8-----------8~10--8-8------------------------------------|
G|-4------4~5------- 4-------------------------------------------------------|
D|---5~7--------------------7------------------------------------------------|
A|---------------------------------------------------------------------------|
E|---------------------------------------------------------------------------|

[Refrão]

E|---5-7-8--8-8--7-7--5-5----7~8--8-8-7-7-5-5------------------------------------------------------------------------|
B|-8----------------------8-------------------------------------8-8~10-10-10-8-8-8-8-8-10-10-10-10---8-8-10-10~12----|
G|-------------------------------------------------------------------------------------------------------------------|
D|-------------------------------------------------------------------------------------------------------------------|
A|-------------------------------------------------------------------------------------------------------------------|
E|-------------------------------------------------------------------------------------------------------------------|

E|---7~8--8-8--7-7---------------7~8--8-8--7-7-----------------------------------------------------------------------|
B|-8---------------------10-10-8---------------------------10-10-8--8~10--10-10--8-8---------------------------------|
G|-----------------------------------------------------------------------------------------------------------5-5-----|
D|-------------------------------------------------------------------------------------------------------------------|                                          
A|-------------------------------------------------------------------------------------------------------------------|
E|-------------------------------------------------------------------------------------------------------------------|

E|---------------------------------------------------------------|
B|---8--8~10--10-10--8-8--6-6~5-----------------8~10--8-8--------|
G|-5---------------------------------------------5-7~9-----------|
D|---------------------------------------------------------------|
A|---------------------------------------------------------------|
E|---------------------------------------------------------------|

E|-------------|---------------|----------------|---------------------------------------|
B|-------------|---------------|----------------|---------------------------------------|
G|-5~7--5--7b9-|-7--5~7--5--7~9|-b9-b9-9~10--7--|-7~(b9)-10-7--5--4~5---12-12-12--------| (4x)
D|-------------|---------------|----------------|---------------------------------------|
A|-------------|---------------|----------------|---------------------------------------|
E|-------------|---------------|----------------|---------------------------------------|

E|-------------|---------------|----------------|---------------------------------------|
B|-------------|---------------|----------------|---------------------------------------|
G|-5~7--5--7b9-|-7--5~7--5--7~9|-b9-b9-9~10--7--|-7~(b9)-10-7--5--4~5---12-12-12--------|     (2x)
D|-------------|---------------|----------------|---------------------------------------|
A|-------------|---------------|----------------|---------------------------------------|
E|-------------|---------------|----------------|---------------------------------------|

[Final]

E|---8-8--10-10----8-8--10-12-10-----8-8--10--12~13-12--10---8-----10-8-7-8--|
B|-8------------8-----------------------------8------------------------------|
G|---------------------------------------------------------------------------|
D|---------------------------------------------------------------------------|
A|---------------------------------------------------------------------------|
E|---------------------------------------------------------------------------|
Composição de Aline Barros / Ana Feitosa / Edson Feitosa
Colaboração e revisão:
  • Alefe Lins
57.399 exibições
  • Simplificar cifra
    • ½ Tom
    • A
    • Bb
    • B
    • C
    • Db
    • D
    • Eb
    • E
    • F
    • F#
    • G
    • Ab
  • Adicionar à lista

    0 comentários

    Ver todos os comentários
    00:00 / 00:00
    Outros vídeos desta música
    Repetir Qualidade Automático
    Outros vídeos desta música
    00:00 / 00:00
    Automático
    Capítulos
    • Início
    • Dicas e acordes da introdução
    • Tocando introdução
    • Ensinando dedilhado da introdução
    • Tocando dedilhado (tablatura)
    • Acordes da primeira parte
    • Tocando primeira parte
    • Ensinando dedilhado primeira parte
    • Acordes do pré-refrão
    • Tocando pré-refrão
    • Ensinando ritmo do pré-refrão
    • Acordes do refrão
    • Tocando refrão
    • Ensinando ritmo do refrão
    • Acordes e ritmo parte final
    • Tocando parte final
    • Tocando trecho da música
    • Encerramento

    Cifra Club Pro

    Aproveite o Cifra Club com benefícios exclusivos e sem anúncios
    Cifra Club Pro
    Aproveite o Cifra Club com benefícios exclusivos e sem anúncios
    OK