Cifra Club

Teus Pra Sempre

Aline Barros

Cifra: Principal
exibições 44.790
Tom: D
Intro: Em  G  D  Em  G  D  A


E|------------------------------------------------------------------------------------------------------------------------------
B|---------8---8---7----8----7-----------------7----8---8---7---8---7-----------------------------------------------------------
G|------------------------------9----7------------------------------------9---7-------------7-----------------------------------
D|----------------------------------------------------------------------------------9-------------------------------------------
A|------------------------------------------------------------------------------------------------------------------------------
E|------------------------------------------------------------------------------------------------------------------------------
(Introdução feita pela guitarra 1)

       Em              G       D
Na escuridão chamamos por Seu nome,
 Em              G     D
Vemos Sua luz a nos iluminar
   Em                      G          D
Estreito é o caminho, mas no amor de Deus,
  Em               G       D
Firmes seguiremos até o final

Solo: Em  G  D  Em  G  D  A

  Em                   G      D
Andamos nAquele que venceu o pecado
 Em             G     D
Nosso passado apagado foi
  Em                     G   D
Vivemos pra ver Seu nome exaltado,
       Em                     G      D
É do amor de Deus que o mundo mais precisa

 Em         D        A         Em
Deus, nos guie no caminho do amor
   D            A        Em
Levando o mundo até Tua cruz
      D        A         Em D A
Nos guie no caminho do amor

       Em                   G          D
Somos Teus pra sempre, não somos mais iguais
 Em                    G            D
Teus pra sempre, nosso alvo em Ti está
 Em
Teus pra sempre

     Em                   G      D
Com nosso melhor cantamos Teu louvor
     Em                 G       D
Esperança Tu és, a vida deste a nós
   Em                    G   D
Vivemos pra ver Teu nome exaltado
       Em                     G      D
É do amor de Deus que o mundo mais precisa


 Em         D        A         Em
Deus, nos guie no caminho do amor
   D            A        Em
Levando o mundo até Tua cruz
      D        A         Em D A
Nos guie no caminho do amor

Preparação:Em G D A

E|------------------------------------------------------------------------------------------------------------------------------
B|------------------------------------------------------------------------------------------------------------------------------
G|------------------------------------------------------------------------------------------------------------------------------
D|---5-------------5--------------7----7b------12--12----------------12--12---------------12--12--------------14--14b-----------
A|-------7--5--7--------7--5--7-------------------------14--12--14-----------14--12--14-----------14--12--14--------------------
E|------------------------------------------------------------------------------------------------------------------------------



  Em                         G
Viveremos pois Jesus nos deu,
                        A
Sua vida para nos salvar
               B            A
Eu sei! Eu sei! Em Deus, a esperança não tem fim
Acordes para:
    Composição: Aline BarrosColaboração e revisão:

    0 comentários

      mostrar mais comentários

      Conseguiu tocar?

      10tocaram0ainda não

      Grave um vídeo tocando Teus Pra Sempre e mande pra gente!

      00:00 / 00:00
      outros vídeos desta música
      repetirqualidadeautomática
      Outro vídeos desta música
        00:00 / 00:00
        automática
        OK