Enviar cifraEntrar

Tua Palavra (CD Graça)

Aline Barros

Cifra: Principal
exibições 231.083
Tom: D
Solo Intro:

E|--------------------------------------------------------------------------|    
B|--------------------------------------------------------------------------|   
G|--------------------------------------------------------------------------|        
D|--------------------11-11-11-11-11-11-11-11---------------7-7-7-7-7-7-7-7-| (2x)  
A|3/9--9-9-9-9-9-9-9-9-----------------------5-5-5-5-5-5-5-5----------------|       
E|--------------------------------------------------------------------------|       


E|---------------------------------------------------------------------------------|    
B|---------------------------------------------------------------------------------|   
G|---------------------------------------------------------------------------------|        
D|---------------------------------------------------------------------------------|
A|-0-2-0-2-0-2-0-2-5-7-0-2-0-2-0-2-0-2-0-2-7-5-0-2-0-2-0-2-0-2-0-2-5-7-0-2-0-2-0-2-|
E|-0-2-0-2-0-2-0-2-5-7-0-2-0-2-0-2-0-2-0-2-7-5-0-2-0-2-0-2-0-2-0-2-5-7-0-2-0-2-0-2-|


Primeira Parte:

 F#m         D                A     E
Lâmpada para os meus pés é a tua palavra
 F#m        D               A     E
Luz para o meu caminho é a tua palavra
    F#m             D
Da tua casa eu não tiro os pés
     A              E
Eu quero ouvir tua voz
        F#m           D
Levantarei as minhas mãos
        A             E
E bendirei teu santo nome
        F#m           D
Levantarei as minhas mãos
        A    E
E gritarei

Refrão:

F#m  D   A          C#m
Ôooo ôoo ôoo tu és santo
F#m  D   A          C#m
Ôooo ôoo ôoo tu és santo


E|--------------------------------------------------------------------------|    
B|--------------------------------------------------------------------------|   
G|--------------------------------------------------------------------------|        
D|--------------------11-11-11-11-11-11-11-11---------------7-7-7-7-7-7-7-7-|   
A|3/9--9-9-9-9-9-9-9-9-----------------------5-5-5-5-5-5-5-5----------------|       
E|--------------------------------------------------------------------------|


Primeira Parte:

 F#m         D                A     E
Lâmpada para os meus pés é a tua palavra
 F#m        D               A     E
Luz para o meu caminho é a tua palavra
    F#m             D
Da tua casa eu não tiro os pés
     A              E
Eu quero ouvir tua voz
        F#m           D
Levantarei as minhas mãos
        A             E
E bendirei teu santo nome
        F#m           D
Levantarei as minhas mãos
        A    E
E gritarei

Refrão 2x:

F#m  D   A          C#m
Ôooo ôoo ôoo tu és santo
F#m  D   A          C#m
Ôooo ôoo ôoo tu és santo

Ponte:

F#m       D            A      E/G#
 Quão formosos são os teus caminhos
F#m      D             A   E
 Quão maravilhosa é a tua lei
Bm          F#m E    Bm
 Não tenho para onde ir
           F#m      E
Prefiro estar contigo
      D
Pois só tu tens palavras
         E
Que me trazem vida eterna
     D
Nem só de pão eu viverei
              E
Mas da tua palavra, Deus

Primeira Parte:

 F#m         D                A     E
Lâmpada para os meus pés é a tua palavra
 F#m        D               A     E
Luz para o meu caminho é a tua palavra
    F#m             D
Da tua casa eu não tiro os pés
     A              E
Eu quero ouvir tua voz
        F#m           D
Levantarei as minhas mãos
        A             E
E bendirei teu santo nome
        F#m           D
Levantarei as minhas mãos
        A    E
E gritarei

Refrão 2x:

F#m  D   A          C#m
Ôooo ôoo ôoo tu és santo
F#m  D   A          C#m
Ôooo ôoo ôoo tu és santo

Riff final: (E F# 4x A B)  (E F# 4x A E)    ( A G# G)
(G A 4x C D)  ( A G# G)    (E F# 4x A B)   Final: F#
  • 1
  • 2
  • 3
  • 4
  • 5
  • 6
  • 7
  • 8
  • 9
  • 10
  • 11
  • 12
    Acordes para:

      0 comentários

        mostrar mais comentários

        Conseguiu tocar?

        11tocaram0ainda não

        Grave um vídeo tocando Tua Palavra (CD Graça) e mande pra gente!

        00:00 / 00:00
        outros vídeos desta música
        repetirqualidadeautomática
        • automática
        Outro vídeos desta música
          00:00 / 00:00
          automática
          • automática
          Acordes para:violão e guitarra
          dificuldadeexibiçõescontribuições
          1 versão de Guitar Proformatodownloadscontribuição
          fecharplay/pause subir/descer velocidade
            Acordes para:violão e guitarra
            acordes
            fechar
            OK