Cifra Club

País da Fantasia

Alinne Rosa

Cifra: Principal (violão e guitarra)
tom: F
INTRO (2X)

Gm/D

E|------------10---------------11-10-10-----------|
B|---------11-----13-13-13-13-------------11------|
G|--12--12-----------------------------------12---|
D|------------------------------------------------|
A|------------------------------------------------|
E|------------------------------------------------|

Ou

E|-------------------------------------|
B|---------3----------4--3-3-----------|
G|------3----5-5-5-5---------3---------|
D|--5-5-------------------------5------|
A|-------------------------------------|
E|-------------------------------------|

Gm/D
Não estranhe, não
Hoje é o dia
Já acordei nesse país da fantasia
Aqui tem doce, tem perfume, tem amor 

C4
    Eu acordei no carnaval de Salvador

Gm/D
Tá batendo o grave
A batida tá aquecendo
Tá todo mundo, todo mundo se envolvendo
Vem sentir, meu corpo já tá dando o sinal
Eu vou contar pra começar o carnaval
3,2,1

Riff:
E|------------10---------------11-10-10-----------|
B|---------11-----13-13-13-13-------------11------|
G|--12--12-----------------------------------12---|
D|------------------------------------------------|
A|------------------------------------------------|
E|------------------------------------------------|

Gm/D
Ei você aí no fundo que eu tô te vendo
Vai descendo, vai descendo, vai descendo
Ei você aí no fundo que eu tô te vendo
Vai descendo, vai descendo, vai descendo

RIFF

Gm/D
Não estranhe, não
Hoje é o dia
Já acordei nesse país da fantasia
Aqui tem doce, tem perfume, tem amor 

C4
    Eu acordei no carnaval de Salvador

Tá batendo o grave
A batida tá aquecendo
Tá todo mundo, todo mundo se envolvendo
Vem sentir, meu corpo já tá dando o sinal
Eu vou contar pra começar o carnaval
3,2,1

Não me chame, não
Não me chame, não, que eu vou

Não me chame, não
Não me chame, não, que eu vou

Não me chame, não me chame, não me chame
00:00 / 00:00
Outros vídeos desta música
Repetir
Outros vídeos desta música
Composição de Alinne Rosa
Colaboração e revisão:
  • Carolina Santin
247 exibições
    • ½ Tom
    • A
    • Bb
    • B
    • C
    • Db
    • D
    • Eb
    • E
    • F
    • F#
    • G
    • Ab
  • Adicionar à lista

    0 comentários

    Ver todos os comentários

    Conseguiu tocar?

    0 Tocaram 0 Ainda não

    Grave um vídeo tocando País da Fantasia e nos envie!

    Entre para oCifra Club PRO

    Tenha acesso a benefícios exclusivos no App e no Site

    • Chega de anúncios

    • Prioridade de compra em lançamentos

    • Mais recursos no app do Afinador

    • Atendimento Prioritário

    • Descontos nos produtos Cifra Club

    • Ajude a produzir mais conteúdo

    00:00 / 00:00

    Cifra Club Pro

    Aproveite o Cifra Club com benefícios exclusivos e sem anúncios
    Cifra Club Pro
    Aproveite o Cifra Club com benefícios exclusivos e sem anúncios
    OK