Cifra Club

Armaggedon

Alkaline Trio

Tab de baixo: Principal
Tabbed By : paliga
e-mail: *

Tuning: Standard (EADG)
Intro Part 1

G|---2----2------------|
D|-24-4-24-4-----------|
A|-----------4444-0000-| x2
E|---------------------|

Intro Part 2

G|---2----2---------------------|
D|-24-4-24-4--------------------|
A|-----------4444-0000-22222222-| x1
E|------------------------------|

Verse

G|------------------------------------------|
D|------6-66------64-------7976-------------|
A|-4-44------4-44---74-0000----779911111212-| (11s and 12s)
E|------------------------------------------|

G|--------------------------------------|
D|------6-66------64-------7976---------|
A|-4-44------4-44---74-0000----77997766-|
E|--------------------------------------|

G|------------------------------------------|
D|------6-66------64-------7976-------------|
A|-4-44------4-44---74-0000----779911111212-|
E|------------------------------------------|

G|-----------------------------------------------------|
D|------6-66------64-----------------------------------|
A|-4-44------4-44---74-00000000-22222222---------------|
E|-----------------------------------------------------|

Intro Part 1
Verse

That's all I can remember at the moment but I just saw all the tabs on here were completely wrong

| /  slide up
| \  slide down
| h  hammer-on
| p  pull-off
| ~  vibrato
| +  harmonic
| x  Mute note
============================================================================
exibições 386

0 comentários

mostrar mais comentários

Conseguiu tocar?

0 tocaram 0 ainda não

Grave um vídeo tocando Armaggedon e mande pra gente!

00:00 / 00:00
outros vídeos desta música
repetir qualidade Automático
Outros vídeos desta música
00:00 / 00:00
Automático
OK