Cifra Club

As You Were

Alkaline Trio

Tab de baixo: Principal
Intro/verse:

G ---------------------------------------------------------------------|
D ---------------------------------------------------------------------|
A 6666666666666666-----------------------------------------------------|
E ----------------4444444444444444888888888888888844444444444444446666-|

verse

Chorus:

G ---------------|
D ---------------|
A 6--------------|
E --6-44444444---|  x2

Then:

G --------------------------------|
D --------------------------------|
A --------------------------------|
E 88888888888888886666666666666666  x1

verse

chorus

bridge:

G ----------------------------------------|
D ----------------------------------------|
A 6666666666666666------------------------|
E ----------------8888888888888888-88-66--| x2

Join guitar at 1:23

G ---------------------------------------------------------|
D ---------------------------------------------------------|
A 6-6666-6-6666-6-6666-6-6666------------------------------|
E ---------------------------8-8888-8-8888-8-8888-66666666-|

Bridge again

Solo:

G ----------------|
D ----------------|
A -------3--------|
E 4444664-44446633  x4

End:

G ------|
D ------|
A 6-6-6~
E ------
exibições 242
Composição: Alkaline Trio

0 comentários

mostrar mais comentários

Conseguiu tocar?

0 tocaram 0 ainda não

Grave um vídeo tocando As You Were e mande pra gente!

00:00 / 00:00
outros vídeos desta música
repetir qualidade Automático
Outros vídeos desta música
00:00 / 00:00
Automático
OK