Cifra Club

Continental

Alkaline Trio

Tab de baixo: Principal
20/12/03
Album: Good Mourning
Tabbed by: Luke Tebbutt 
Email: M* 
Website: http://*
Tuning: Standard (eg E, A, D, G)

Here is the bass tab for continental:


Intro:

G|-------------------------------------------------|
D|-------------------------------------1--1--2--2--|
A|-4--4--4--4--4--4--4--4--4--4--4--4--------------|
E|-------------------------------------------------|

G|-------------------------------------------------|
D|-------------2--2--4--4--------------2--2--1--1--|
A|-0--0--0--0--------------2--2--2--2--------------|
E|-------------------------------------------------| x 2


Verse:

The first four lines of the verse do not have bass.  It
comes in after the "You made" part of the 5th line.

G|-------------------------------------------------|
D|-------------------------------------------------|
A|-0--0--0--0--0--0--0--0--------------------------|
E|-------------------------0--0--0--0--0--0--0--0--|

G|-------------------------------------------------|
D|-------------------------------------------------|
A|-2--2--2--2--2--2--2--2--2--2--2--2--2--2--2--2--|
E|-------------------------------------------------|




G|-------------------------------------------------|
D|-------------------------------------------------|
A|-4--4--4--4--4--4--4--4--0--0--0--0--0--0--0--0--|
E|-------------------------------------------------|

G|-------------------------------------------------|
D|-------------------------------------------------|
A|-2--2--2--2--2--2--2--2--2--2--2--2--2--2--2--2--|
E|-------------------------------------------------| x 2




G|-------------------------------------------------|
D|-------------------------------------------------|
A|-4--4--4--4--4--4--4--4--0--0--0--0--0--0--0--0--|
E|-------------------------------------------------|

G|-------------------------------------------------|
D|-2--2--2--2--2--2--2--2--2--2--2--2--2--2--2--2--|
A|-------------------------------------------------|
E|-------------------------------------------------|

G|-------------------------------------------------|
D|-------------------------------------------------|
A|-2--2--2--2--2--2--2--2--2--2--2--2--2--2--2--2--|
E|-------------------------------------------------|

G|-------------------------------------------------|
D|-------------------------------------------------|
A|-2--2--2--2--2--2--2--2--2--2--2--2--2--2--2--2--|
E|-------------------------------------------------|


Chrous:


G|-------------------------------------------------|
D|-------------------------------------------------|
A|-0--0--0--0--0--0--0--0--------------------------|
E|-------------------------0--0--0--0--0--0--0--0--|

G|-------------------------------------------------|
D|-------------------------------------------------|
A|-2--2--2--2--2--2--2--2--2--2--2--2--2--2--2--2--|
E|-------------------------------------------------|

G|-------------------------------------------------|
D|-------------------------------------------------|
A|-0--0--0--0--0--0--0--0--------------------------|
E|-------------------------0--0--0--0--0--0--0--0--|

G|-------------------------------------------------|
D|-------------------------------------------------|
A|-2--2--2--2--2--2--2--2--2--2--2--2--2--2--------|
E|-------------------------------------------4--4--|

G|-------------------------------------------------|
D|-------------------------------------------------|
A|-0--0--0--0--0--0--0--0--------------------------|
E|-------------------------0--0--0--0--0--0--0--0--|

G|-------------------------------------------------|
D|-------------------------------------------------|
A|-2--2--2--2--2--2--2--2--2--2--2--2--2--2--2--2--|
E|-------------------------------------------------|

G|-------------------------------------------------|
D|-------------------------------------------------|
A|-------------------------------------------------|
E|-4--4--4--4--4--4--4--4--4--4--4--4--4--4--4--4--|

G|-------------------------------------------------|
D|-------------------------------------------------|
A|-------------------------2--2--2--2--2--2--2--2--|
E|-5--5--5--5--5--5--5--5--------------------------|


Verse:


G|-------------------------------------------------|
D|-------------------------------------1--1--2--2--|
A|-4--4--4--4--4--4--4--4--4--4--4--4--------------|
E|-------------------------------------------------|

G|-------------------------------------------------|
D|-------------2--2--4--4--------------2--2--1--1--|
A|-0--0--0--0--------------2--2--2--2--------------|
E|-------------------------------------------------| x 2




G|-------------------------------------------------|
D|-------------------------------------------------|
A|-4--4--4--4--4--4--4--4--0--0--0--0--0--0--0--0--|
E|-------------------------------------------------|

G|-------------------------------------------------|
D|-------------------------------------------------|
A|-2--2--2--2--2--2--2--2--2--2--2--2--2--2--2--2--|
E|-------------------------------------------------| x 2




G|-------------------------------------------------|
D|-------------------------------------------------|
A|-4--4--4--4--4--4--4--4--0--0--0--0--0--0--0--0--|
E|-------------------------------------------------|

G|-------------------------------------------------|
D|-2--2--2--2--2--2--2--2--2--2--2--2--2--2--2--2--|
A|-------------------------------------------------|
E|-------------------------------------------------|

G|-------------------------------------------------|
D|-------------------------------------------------|
A|-2--2--2--2--2--2--2--2--2--2--2--2--2--2--2--2--|
E|-------------------------------------------------|

G|-------------------------------------------------|
D|-------------------------------------------------|
A|-2--2--2--2--2--2--2--2--2--2--2--2--2--2--2--2--|
E|-------------------------------------------------|


Chrous:


G|-------------------------------------------------|
D|-------------------------------------------------|
A|-0--0--0--0--0--0--0--0--------------------------|
E|-------------------------0--0--0--0--0--0--0--0--|

G|-------------------------------------------------|
D|-------------------------------------------------|
A|-2--2--2--2--2--2--2--2--2--2--2--2--2--2--2--2--|
E|-------------------------------------------------|

G|-------------------------------------------------|
D|-------------------------------------------------|
A|-0--0--0--0--0--0--0--0--------------------------|
E|-------------------------0--0--0--0--0--0--0--0--|

G|-------------------------------------------------|
D|-------------------------------------------------|
A|-2--2--2--2--2--2--2--2--2--2--2--2--2--2--------|
E|-------------------------------------------4--4--|

G|-------------------------------------------------|
D|-------------------------------------------------|
A|-0--0--0--0--0--0--0--0--------------------------|
E|-------------------------0--0--0--0--0--0--0--0--|

G|-------------------------------------------------|
D|-------------------------------------------------|
A|-2--2--2--2--2--2--2--2--2--2--2--2--2--2--2--2--|
E|-------------------------------------------------|

G|-------------------------------------------------|
D|-------------------------------------------------|
A|-------------------------------------------------|
E|-4--4--4--4--4--4--4--4--4--4--4--4--4--4--4--4--|

G|-------------------------------------------------|
D|-------------------------------------------------|
A|-------------------------2--2--2--2--2--2--2--2--|
E|-5--5--5--5--5--5--5--5--------------------------|


Bridge:


G|-------------------------------------------------|
D|-------------------------------------1--1--2--2--|
A|-4--4--4--4--4--4--4--4--4--4--4--4--------------|
E|-------------------------------------------------|

G|-------------------------------------------------|
D|-------------2--2--4--4--------------2--2--1--1--|
A|-0--0--0--0--------------2--2--2--2--------------|
E|-------------------------------------------------|

G|-------------------------------------------------|
D|-------------------------------------1--1--2--2--|
A|-4--4--4--4--4--4--4---4-4--4--4--4--------------|
E|-------------------------------------------------|

G|-------------------------------------------------|
D|-------------2--2--4--4--------------2--2--1--1--|
A|-0--0--0--0--------------2--2--2--2--------------|
E|-------------------------------------------------|

G|-------------------------------------------------|
D|-------------------------------------1--1--2--2--|
A|-4--4--4--4--4--4--4--4--4--4--4--4--------------|
E|-------------------------------------------------|

G|-------------------------------------------------|
D|-------------2--2--4--4--------------2--2--1--1--|
A|-0--0--0--0--------------2--2--2--2--------------|
E|-------------------------------------------------|

G|-------------------------------------------------|
D|-------------------------------------1--1--2--2--|
A|-4--4--4--4--4--4--4--4--4--4--4--4--------------|
E|-------------------------------------------------|

G|-------------------------------------------------|
D|-------------2--2--4--4--------------------------|
A|-0--0--0--0--------------2--2--2--2--2--2--2--2--|
E|-------------------------------------------------|

G|-------------------------------------------------|
D|-------------------------------------------------|
A|-2--2--2--2--2--2--2--2--2--2--2--2--2--2--2--2--|
E|-------------------------------------------------|

G|-------------------------------------------------|
D|-------------------------------------------------|
A|-2--2--2--2--2--2--2--2--2--2--2--2--2--2--2--2--|
E|-------------------------------------------------|


Chrous:


G|-------------------------------------------------|
D|-------------------------------------------------|
A|-0--0--0--0--0--0--0--0--------------------------|
E|-------------------------0--0--0--0--0--0--0--0--|

G|-------------------------------------------------|
D|-------------------------------------------------|
A|-2--2--2--2--2--2--2--2--2--2--2--2--2--2--2--2--|
E|-------------------------------------------------|

G|-------------------------------------------------|
D|-------------------------------------------------|
A|-0--0--0--0--0--0--0--0--------------------------|
E|-------------------------0--0--0--0--0--0--0--0--|

G|-------------------------------------------------|
D|-------------------------------------------------|
A|-2--2--2--2--2--2--2--2--2--2--2--2--2--2--------|
E|-------------------------------------------4--4--|

G|-------------------------------------------------|
D|-------------------------------------------------|
A|-0--0--0--0--0--0--0--0--------------------------|
E|-------------------------0--0--0--0--0--0--0--0--|

G|-------------------------------------------------|
D|-------------------------------------------------|
A|-2--2--2--2--2--2--2--2--2--2--2--2--2--2--2--2--|
E|-------------------------------------------------|

G|-------------------------------------------------|
D|-------------------------------------------------|
A|-------------------------------------------------|
E|-4--4--4--4--4--4--4--4--4--4--4--4--4--4--4--4--|

G|-------------------------------------------------|
D|-------------------------------------------------|
A|-------------------------2--2--2--2--2--2--2--2--|
E|-5--5--5--5--5--5--5--5--------------------------|

G|-------------------------------------------------|
D|-------------------------------------------------|
A|-------------------------------------------------|
E|-0-----------------------------------------------| Let Ring


Lyrics:

I've got a dying urge to feel the way you do,
Too close for comford bed, and breakfast in a spoon.
The shortest breath of your young life,
A long walk home in friday night,
You made, one last stop at the store.

So close to perfect, swear to hell, thought it was you,
Well this bouncing baby boy now's turning baby blue.
I've got your pictures on my walls,
I've got a long list of calls, I must make,
To your existing family.

You had 9 lives and one by one you chewed 'em up.
Your final coffin nail's been driven far too much.
This won't take long, you said, I'm not going far.
Go wait in the car, go wait in the car.

I often wonder what it feels like to be you,
A mess like this stuck on your hands with crazy glue,
Ran out of time, no kiss goodbye,
I wish I could learn to let this sleeping dog die,
Without lying to myself.

You had 9 lives and one by one you chewed 'em up.
Your final coffin nail's been driven far too much.
This won't take long, you said, I'm not going far.
Go wait in the car, go wait in the car.

You had 9 lives and one by one you chewed 'em up.
Your final coffin nail's been driven far too much.
This won't take long, you said, I'm not going far.
Go wait in the car, go wait in the car.
exibições 243
Composição: Alkaline Trio

0 comentários

mostrar mais comentários

Conseguiu tocar?

0 tocaram 0 ainda não

Grave um vídeo tocando Continental e mande pra gente!

00:00 / 00:00
outros vídeos desta música
repetir qualidade Automático
Outros vídeos desta música
00:00 / 00:00
Automático
OK