Fuck You Aurora

Alkaline Trio

tom: G
Tabbed by:Mikey G
Email:A*

Tuning:Standard 

Intro/Verse

e|---------------------------------------------------------------------------|
B|---------------------------------------------------------------------------|
G|-------------------44444444-55555555---------------------------------------|
D|-55555555-77777777-44444444-55555555---------------------------------------|
A|-55555555-77777777-22222222-33333333---------------------------------------|
E|-33333333-55555555---------------------------------------------------------|

Bridge

e|---------------------------------------------------------------------------|
B|--------And all your lonely nights in the city of lights are much----------|
G|-7-7-7-7-7-7-7-7-7-7-7-7-7-7-7-7-5-5-5-5-5-5-5-5-5-5-5-5-5-5-5-5-----------|
D|-7-7-7-7-7-7-7-7-7-7-7-7-7-7-7-7-5-5-5-5-5-5-5-5-5-5-5-5-5-5-5-5-----------|
A|-5-5-5-5-5-5-5-5-5-5-5-5-5-5-5-5-3-3-3-3-3-3-3-3-3-3-3-3-3-3-3-3-----------|
E|---------------------------------------------------------------------------|
        
e|---------------------------------------------------------------------------|
B|-like all these crowded bars i find my stupid self stumbling through-------|
G|-7-7-7-7-7-7-7-7-7-7-7-7-7-7-7-7-5-5-5-5-5-5-5-5-5-5-5-5-5-5-5-5-----------|
D|-7-7-7-7-7-7-7-7-7-7-7-7-7-7-7-7-5-5-5-5-5-5-5-5-5-5-5-5-5-5-5-5-----------|
A|-5-5-5-5-5-5-5-5-5-5-5-5-5-5-5-5-3-3-3-3-3-3-3-3-3-3-3-3-3-3-3-3-----------|
E|---------------------------------------------------------------------------|

Chorus

e|--fuck you Aurora, you took my only friend---------------------------------|
B|---------------------------------------------------------------------------|
G|----------55555555-77777777-55555555---------------------------------------|
D|-55555555-55555555-77777777-55555555---------------------------------------|
A|-55555555-33333333-55555555-33333333---------------------------------------|
E|-33333333------------------------------------------------------------------|

e|--You won't catch me behind the wheel of a chrysler ever again-------------|
B|---------------------------------------------------------------------------|
G|----------555555555-----------5--------------------------------------------|
D|-55555555-555555555-555555555-5--------------------------------------------|
A|-55555555-333333333-555555555-3--------------------------------------------|
E|-33333333-----------333333333----------------------------------------------|

timing isn't perfect in places
=============================================================================
Página 1 / 1

Letras e título
Acordes e artista

resetar configurações
OK