Cifra Club

I Wanna Be a Warhol

Alkaline Trio

Cifra: Principal (violão e guitarra)
Tom: G
Intro:

E|-----------------------------------------|
B|-----------------------------------------|
G|--(b9)-10--5--7--------------------------|
D|--7---x--x--x-------------5--------------|
A|--0---8--3--5--3--2--0----5--------------|
E|-----------------------1--3--------------| 

Verso:

          (I)                     (II)
E|----------------------|----------------------|
B|----------------------|----------------------|
G|--(b9)-10--12---(b9)--|---(b9)-10--12--------|
D|--7--10--12---(b9)----|---7--10--12----------|
A|--0---8--10---7-------|---0---8--10----------|
E|----------------------|----------------------|

I - 3x
II - 1x

Refrão:

E|--------------------------------------------|
B|--------------------------------------------|
G|--5--4--5--5--5--5-----4--------------------| 2x
D|--5--5--5--5--4--5-----5--3-----------------|
A|--3--3--3--0--0--0-----5--3-----------------|
E|-----------------------3--1-----------------|

Pré-Verso:

E|-----------------------------------------|
B|-----------------------------------------|
G|--(b9)-10--(b9)-10-----------------------|
D|--X---x--x---X-------------5-------------|
A|--7---8--7---(b9)-3--2--0----5-----------|
E|------------------------1--3-------------|

(Verso)

(Refrão)

Ponte:

E|---------------------------------------------|
B|---------------------------------------------|
G|--(b9)-10--12--7-----------------------------|
D|--7---x--X---x-------------------------------| 4x
A|--0---8--10--5-------------------------------|
E|---------------------------------------------|

Outro / Refrão:

E|----------------------------------------------------------------------|
B|----------------------------------------------------------------------|
G|------5---4---5------5---4---5-----5---4---5-------10----(b9)---10----|
D|----5---5---5------5---5---5-----5---5---5------10----10---10---------|
A|--3--------------0-----------------------------8----------------------|
E|-------------------------------3--------------------------------------|

(Refrão)

Final:

E|-----------------------------------------|
B|--------------1--------------------------|
G|--(b9)-10--12--2-------------------------|
D|--7---x--X---2---------------------------|
A|--0---8--10--0---------------------------|
E|-----------------------------------------|


exibições 295
Acordes para:
    Colaboração e revisão:
    • Augustu Andradee

    0 comentários

    mostrar mais comentários

    Conseguiu tocar?

    1 tocaram 0 ainda não

    Grave um vídeo tocando I Wanna Be a Warhol e mande pra gente!

    00:00 / 00:00
    outros vídeos desta música
    repetir qualidade Automático
    Outros vídeos desta música
    00:00 / 00:00
    Automático
    OK