Cifra Club

Radio

Alkaline Trio

Tab de baixo: Principal
Intro/Verse 
G|---------------------------------------------------------------------------| 
D|---------------------------------------------------------------------------| 
A|-5-5-5-5-5-5-5-5-5-5-5-5-4-4-4-4-2-2-2-2-2-2-2-2-0-0-0-0-0-0-0-0-----------| 
E|---------------------------------------------------------------------------| 

Chorus 
G|---------------------------------------------------------------------------| 
D|---------------------------------------------------------------------------| 
A|-5-5-5-5-5-5-5-5---------------------5-5-5-5-5-5-5-5-----------------------| 
E|---------------------5-5-5-5-5-5-5-5---------------------7-7-7-7-5-5-5-5---| 

Post Chorus 
G|---------------------------------------------------------------------------| 
D|---------------------------------------------------------5-5-4-2-----------| 
A|-5-5-5-5-5-5-5-5-5-5-5-5-7-7-5-4-2-2-2-2-4-4-5-5-0-0-0-0-------------------| 
E|---------------------------------------------------------------------------| 


_______________________________________________________
Contribuição: lemming(lemming_lele@hotmail.com)
exibições 2.039
Composição: Alkaline Trio

0 comentários

mostrar mais comentários

Conseguiu tocar?

0 tocaram 0 ainda não

Grave um vídeo tocando Radio e mande pra gente!

00:00 / 00:00
outros vídeos desta música
repetir qualidade Automático
Outros vídeos desta música
00:00 / 00:00
Automático
OK