Cifra Club

Wash Away

Alkaline Trio

Tab de baixo: Principal
Tabbed By: Valerie L. 
e-mail: *

Intro
G|-12~---9~-----|
D|--------------|
A|--------------|
E|--------------| x6

G|-------------------------|
D|-333333333333333-5420----|
A|-------------------------|
E|-------------------------|

Verse
G|---------------------------------| 
D|----------------333333333333-5420| 
A|333333333333333------------------| 
E|---------------------------------|

G|----------------------------------------------|
D|------------------------------333333333-5420--|
A|33333333-0h2h3-33333333-320-------------------|
E|----------------------------3-----------------| x2

Chorus
G|-----------------------------------------------|
D|---2------2---3-5-53202--------------333-------|
A|00---0-00---0------------111-333-555-----------|
E|-----------------------------------------------| x2

Verse x2
Chorus x2
exibições 499
Composição: T.S.O.L.

0 comentários

mostrar mais comentários

Conseguiu tocar?

0 tocaram 0 ainda não

Grave um vídeo tocando Wash Away e mande pra gente!

00:00 / 00:00
outros vídeos desta música
repetir qualidade Automático
Outros vídeos desta música
00:00 / 00:00
Automático
OK