80s Intro

Allison

tom: Db
Intro y Verso:

e|-----------13---------------------11-------------------|
B|-----14----------14---------13----------13-------------|
G|--15----15----15----15---13----13----13----13----------|
D|-------------------------------------------------------|
A|-------------------------------------------------------|
E|-------------------------------------------------------|

e|--------9------------------9---------------------------|
B|---9---------9--------9---------9----------------------|
G|10---10---10---10--10---10---10---10-------------------|
D|-------------------------------------------------------|
A|-------------------------------------------------------|
E|-------------------------------------------------------|







Página 1 / 1

Letras e título
Acordes e artista

resetar configurações
OK