Adios

Allison

tom: Db
   C#  A#  F#  G#
E|-x-|-x-|-x-|-x-|
B|-x-|-x-|-x-|-x-|
G|-6-|-x-|-x-|-x-|
D|-6-|-8-|-4-|-6-|
A|-4-|-8-|-4-|-6-|
E|-x-|-6-|-2-|-4-|

(SE TOCAN A S NOTAS APAGADAS)

C#
Que difícil es
A#
Mirarte otra vez
  F#
Sabiendo que
G#
Ahora quieres a otro

(PARADA)


E|-----------------------------------------------------------|
B|-----------------------------------------------------------|
G|-----------------------------------------------------------|
D|----6-6-6-6--4-4-4-4--3-3-3-3------6-6-6-6--4-4-4-4--3-3-3-3|
A|-4-------------------------------4--------------------------|
E|------------------------------6----------------------------|

E|--------------------------------------------------------------|
B|--------------------------------------------------------------|
G|--------------------------------------------------------------|
D|------6-6-6-6--4-4-4-4--3-3-3-3------3-3-3-3--4-4-4-4--3-3-3-3|
A|----4------------------------------4--------------------------|
E|-2------------------------------4-----------------------------|

E|-x-|
B|-x-|
G|-6-|
D|-6-| (8 Seg.)
A|-4-|
E|-x-|


C#             A#
Estamos solos tu y yo
    F#
La noche llego
       G#
Y hace frió
C#          A#
Y me pides que me valla
      F#                  G#
Y tus manos no dejan de temblar



F#          G#          C#
A veces no dejo de pensar
        A#     G#     F#
Que tú quieres regresar
         G#
Pero me doy cuenta
C#                 C#
Que lo nuestro ya nunca será igual

C#           F#
Te amo demasiado
                    A#
Que a veces me hago daño
 G#
Por ti
C#                 F#
Como quisiera olvidarte
                  A#     G#
Para poder salvar algo de mi

(Se repite el intro)

(después sigue esto)

E|-9p8---8---9h8---8---8r11--|
B|-----9---------9---9-------|
G|---------------------------| (x3)
D|---------------------------|
A|---------------------------|
E|---------------------------|

C#           F#
Te amo demasiado
                    A#
Que a veces me hago daño
 G#
Por ti
C#                  F#
Como quisiera olvidarte
                  A#     G#
Para poder salvar algo de mi

F#         G#         C#
A veces no dejo de pensar
        A#     G#     F#
Que tu quieres regresar
         G#
Pero me doy cuenta
C#                  C#
Que lo nuestro ya nunca será igual
F#      G#         C#
Solo me queda recordar
        A#     G#      F#
Que fuiste muy especial
        G#         C#
Y arrancarte de mi vida
Página 1 / 1

Letras e título
Acordes e artista

resetar configurações
OK