Me Cambi

Allison

tom: A
esta es la primer cancion de allisopn k logro sacar aparte d fragil todavia no e logrado 
el puentepero trabajo en eso disfrutenla

|------------------------------------------------------------------------|
|------------------------------------------------------------------------|
|--------------------------------------8-8-8-6-6-6-----------------------|2x
|--4-4-4-4-4-4--8-8-8-8-8-8-9-9-9-9----8-8-8-6-6-6-----------------------|
|--4-4-4-4-4-4--8-8-8-8-8-8-9-9-9-9----6-6-6-4-4-4-----------------------|
|--2-2-2-2-2-2--6-6-6-6-6-6-7-7-7-7--------------------------------------|

|--------------------------------------------------------------------------|
|--------------------------------------------------------------------------|
|------------------------------------8---8/6---6/4-------------------------|
|--4---------4/8-------8/9---------9/8---8/6---6/4-------------------------|
|--4---------4/8-------8/9---------9/66666/44444/2-dejalo sonar------------|
|--22222222222/666666666/77777777777/--------------------------------------|
pm  .........   .......   .........   ...   ...

pues me cambio....

----------------------------------------------------------------------------|
|---------------------------------------------------------------------------|
|---------------------------------------------------------------------------|
|---------------------------------------------------------------------------|x2
|------------------------------------6666644444-----------------------------|
|--22222222222-666666666-77777777777----------------------------------------|
pm ............................................

y ela lo tiro ooooooo....
|------------------------------------------------------------------------|
|------------------------------------------------------------------------|
|--------------------------------------8-8-8-6-6-6-----------------------|2x
|--4-4-4-4-4-4--8-8-8-8-8-8-9-9-9-9----8-8-8-6-6-6-----------------------|
|--4-4-4-4-4-4--8-8-8-8-8-8-9-9-9-9----6-6-6-4-4-4-----------------------|
|--2-2-2-2-2-2--6-6-6-6-6-6-7-7-7-7--------------------------------------|

segunda gitarra:
|------------------------------------------------------------------------|
|------------------------------------------------------------------------|
|--------------------------------------8-8-8-6-6-6-----------------------|2x
|--4-4-4-4-4-4--8-8-8-8-8-8-9-9-9-9--------------------------------------|
|------------------------------------------------------------------------|
|------------------------------------------------------------------------|

no estoi mui seguro d esa parte pero ok

el segundo verso es puro bajo hasta..
al ver me d mi se acordo..

----------------------------------------------------------------------------|
|---------------------------------------------------------------------------|
|---------------------------------------------------------------------------|
|---------------------------------------------------------------------------|
|------------------------------------6666644444-----------------------------|
|--22222222222-666666666-77777777777----------------------------------------|
pm ............................................

 ela lo tiro ooooooo....
|------------------------------------------------------------------------|
|------------------------------------------------------------------------|
|--------------------------------------8-8-8-6-6-6-----------------------|2x
|--4-4-4-4-4-4--8-8-8-8-8-8-9-9-9-9----8-8-8-6-6-6-----------------------|
|--4-4-4-4-4-4--8-8-8-8-8-8-9-9-9-9----6-6-6-4-4-4-----------------------|
|--2-2-2-2-2-2--6-6-6-6-6-6-7-7-7-7--------------------------------------|

|--------------------------------------------------------------------------|
|--------------------------------------------------------------------------|
|------------------------------------8---8/6---6/4-------------------------|
|--4---------4/8-------8/9---------9/8---8/6---6/4-------------------------|
|--4---------4/8-------8/9---------9/66666/44444/2-dejalo sonar------------|
|--22222222222/666666666/77777777777/--------------------------------------|
pm  .........   .......   .........   ...   ...

y lugo el punte k no le encontre

y lo de mas es igual toda la p***he cancion es lo mismo
Página 1 / 1

Letras e título
Acordes e artista

resetar configurações
OK