Olvidaste decir adiós

Allison

tom: Gm
D#m                           Fm
No puedo y es que no quiero, seguir mas asi , mas asi

ESTRIBILLO
      A#                       Gm                  D#m
Y te extraño muero por que me llames y escuchar que todo esta bien y
                   F
que sientes que el dolor que tienes dentro de ti estas muriendo.

E|-----------------------------------------------------------| I
B|----------------------------16--15--11--16--15--11--13-11--| I
G|-10---7---6--7--5-3-(x3)----------------------------------| I
D|-----------------------------------------------------------| I
A|-----------------------------------------------------------| I
E|-----------------------------------------------------------| I

II
 A#                                     Gm
Crees que no te entiendo, no sabes el dolor que llevo dentro, tener
           D#m                            F
que esto se esta desvaneciendo, tu solo te fuiste aunque eso no esta

bien

ESTRIBILLO
       A#                      Gm                D#m
Y te extraño muero por que me llames y escuchar que todo esta bien y
                   F
que sientes que el dolor que tienes dentro de ti estas muriendo.

E|-----------------------------------------------------------| I
B|----------------------------16--15--11--16--15--11--13-11--| I
G|-10---7---6--7--5-3-(x3)----------------------------------| I
D|-----------------------------------------------------------| I
A|-----------------------------------------------------------| I
E|-----------------------------------------------------------| I


Gm            D#m         A#   F
Ven, para atrás duele y no se

                                                D#m
Y te extraño muero por que me llames y escuchar que todo esta bien y
                   F
que sientes que el dolor que tienes dentro de ti estas muriendo.


       A#                      Gm                   D#m
Y te extraño tus palabras de aliento, y que me llames flaco esta
             F
siempre dentro de mi una y otra vez

       A#          Gm       D#m           F
Y te extraño, te extrañoo, te extraño y el dolor que tienes dentro de

                  A#
ti esta muriendo.
Página 1 / 1

Letras e título
Acordes e artista

resetar configurações
OK