Cifra Club

Firing Line

Allman Brothers Band

Cifra: Principal (violão e guitarra)
tom: G
(main riff) (4x intro)

E|-3-0---0--------------------------------------|
B|-----3---3p0----------------------------------|
G|---------------2b2bp0----0h2p0----------------|
D|------------------------2--------0h2p0--------|
A|----------------------------------------------|
E|---------------------------------------3------|

(riff 1 for Guitar 2)
E|-3-0--0---------|
B|-----3--3p0-----|
G|---------------|
E|----------------|
B|----------------|
E|----------------|

(riff 1 )
E|----------------|
B|----------------|
G|----------------|
D|-5--------------|
A|-- 7-5-7p5------|
E|------------7---|

E|---------------------|
B|----10-10br 8--------|
G|-/9------------9-----|
D|---------------------|
A|---------------------|
E|---------------------|

(riff 2)
E|---------------------------------------------|
B|---12--12--12--12\11--11--11--11\--10--------|
G|---------------------------------------------|
D|-12--12--12--12\11--11--11--11\--10----------|
A|---------------------------------------------|
E|---------------------------------------------|

(refrão)
A                     C                 E
Hey now baby, Don't you think it's high time?
(riff 3)
 ------------------------------------------------|
 --15b-------------------------------------------|
 --------14br12 14br12---------------------------|
 -------------------------14-14---12-14-12-------|
 ------------------------------------------------|
 ------------------------------------------------|
 D                         A                 G      E
To change your life's direction, Get off the firing line

Warren solo (3:49)
E|-------------------12-------------------------------------------------------|
B|-------------------12---15br12----12----------------------------------------|
G|-/9vv\0--------14b---------------14------12-14-14b14b-12h14p12-----12----12-|
D|-------------------------------------14--------------------------14---14----|
A|----------------------------------------------------------------------------|
E|----------------------------------------------------------------------------|

E|-------------12--15b--12h15p12-----12-----------------------|
B|-------------12---------------- 15-----15b--12h15p12-----12-|
G|--------14b------------------------------------------14-----|
D|------------------------------------------------------------|
A|------------------------------------------------------------|
E|------------------------------------------------------------|

E|------------------------------------------------------------|
B|------------------------------------------12h14h15----------|
G|-14b-14b-14b-14b--12h14p12-----12---12----------------------|
D|----------------------------14---14-------------------------|
A|------------------------------------------------------------|
E|------------------------------------------------------------|

E|--------------------------------------------------------------|
B|-14h15p14\12/14-----12h14h15-12h14p12-----------12h14p12------|
G|---------------------------------------14-12h14------------14-|
D|--------------------------------------------------------------|
A|--------------------------------------------------------------|
E|--------------------------------------------------------------|

E|---------------------------------------------------------------|
B|---------------------------------------------------------------|
G|-12h14p12----------------------------------------------14br----|
D|----------12h14p12----------------------------12h14------------|
A|--------------------12h14p12-----------12h14-------------------|
E|------------------------------15p12----------------------------|

E|--------------------------------------17b--17p15h17b-----------15---|
B|-------------------------------15h17----------------------15h17-----|
G|-12h14p12-----12-----12---------------------------------------------|
D|----------14------14------------------------------------------------|
A|--------------------------------------------------------------------|
E|--------------------------------------------------------------------|

E|-17-17p15--17bp15----------------12---------------------12-------------|
B|----------------------17--- 12h15-----15p12------12h15-----15p12-------|
G|--------------------------------------------14--------------------14---|
D|-----------------------------------------------------------------------|
A|-----------------------------------------------------------------------|
E|-----------------------------------------------------------------------|

E|---------------------------------------|
B|---------------------------------------|
G|-16b--14b-14b-14b--12----------12------|
D|---------------------------14----------|
A|---------------------------------------|
E|---------------------------------------|

(guitar 1)                             (guitar 2)
E|------------------------------        E ------------------9-10-12-14---|
B|-----------------7-8-10-12----        B ------7-8-10-12----------------|
G|-------4-6-7-9----------------        G -7-9---------------------------|
D|-5-7--------------------------        D -------------------------------|
A|------------------------------        A -------------------------------|
E|------------------------------        E -------------------------------|
Compositor não encontrado.
Colaboração e revisão:
  • Diego Martins
241 exibições
    • ½ Tom
    • A
    • Bb
    • B
    • C
    • Db
    • D
    • Eb
    • E
    • F
    • F#
    • G
    • Ab
  • Adicionar à lista

    0 comentários

    Ver todos os comentários

    Conseguiu tocar?

    0 Tocaram 0 Ainda não

    Grave um vídeo tocando Firing Line e nos envie!

    00:00 / 00:00
    Outros vídeos desta música
    Repetir Qualidade Automático
    Outros vídeos desta música
    00:00 / 00:00
    Automático

    Cifra Club Pro

    Aproveite o Cifra Club com benefícios exclusivos e sem anúncios
    Cifra Club Pro
    Aproveite o Cifra Club com benefícios exclusivos e sem anúncios
    OK