Cifra Club

Comitiva Esperança

Almir Sater

Cifra: Principal
exibições 217.947
Tom: D
[Intro]  D

E|---------------------------------------------|
B|-3---3--2--2-2-0-2-2--3---3-2--2-2-0-2-2--3--|
G|---------------------------------------------|
D|---0----0--------2------0---0--------0-------|
A|---------------------------------------------|
E|---------------------------------------------|

E|---------------------------------------------|
B|---3--2-2--3-2-0-----------------------------|
G|------------------2--2-4-2-0-----------------|
D|-0----0----0------0----------4-4-4--2--0-0-0-|
A|---------------------------------------------|
E|---------------------------------------------|

        D
Nossa viagem não é ligeira
              D     G     D
Ninguém tem pressa de chegar                                                   
            D
A nossa estrada, é boiadeira
         D       G      D
Não interessa onde vai dar
G           D
Onde a Comitiva Esperança
  G         D
Chega já começa a festança
     D      G   D
Através do Rio Negro
      A7            D
Nhecolândia e Paiaguás
        D       G    D
Vai descendo o Piqueri
          A7             D
O São Lourenço e o Paraguai

( D )

          D
Tá de passagem, abre a porteira
          D       G     D
Conforme for pra pernoitar
                              
Se a gente é boa, hospitaleira
       D    G     D
A Comitiva vai tocar
        G
Moda ligeira, que é uma doideira
                  D      G
Assanha o povo e faz dançar
          A
Oh moda lenta que faz sonhar
G           D
Onde a Comitiva Esperança
  G         D
Chega já começa a festança
     D      G   D
Através do Rio Negro
      A7            D
Nhecolândia e Paiaguás
        D       G    D
Vai descendo o Piqueri
          A7             D
O São Lourenço e o Paraguai
E                          A
É, tempo bom que tava por lá
G                       D  E
  Nem vontade de regressar
                        A
Só vortemo eu vô confessar
                             G
É que as águas chegaram em Janeiro
                        A
Deslocamos um barco ligeiro
                D
Fomos pra Corumbá
Acordes para:

    0 comentários

      mostrar mais comentários

      Conseguiu tocar?

      4tocaram0ainda não

      Grave um vídeo tocando Comitiva Esperança e mande pra gente!

      00:00 / 00:00
      outros vídeos desta música
      repetirqualidadeautomática
      Outro vídeos desta música
        00:00 / 00:00
        automática
        OK