Cifra Club

Aprenda

Coração de Pedra

Aloisio Mendes

Cifra: Principal (violão e guitarra)
Já pensou em usar uma coleção de roupas do Cifra Club? Responda as perguntas abaixo e nos ajude nessa missão! →
tom: E
Intro:

                         B                          A           E        B
E|----4--5--4--5-4--------4-----4----------------------------------------|
B|-----------------7-5-7-----7----7-5-4-5--7--5--7-5-4-------------------|
G|-----------------------------------------------------2-1--1-2-4--------|
D|----------------------------------------------------------------4-2-1--|
A|-----------------------------------------------------------------------|
E|-----------------------------------------------------------------------|

E                B/D#                   A
Quero você te abraçar Te envolver te sentir Onde
            E    B A B E                    B/D#
está seu carinho,      Sinto o teu cheiro no ar Com o
            A             B      E       B
pranto no olhar De quem chora sozinho Perdido, sem
 A     E    E4 E E4 E                       F#m   G#m  A
rumo, sozinho.      Quanta indiferença você me faz,  Coração
                E      E4 E
de pedra me faz sofrer,   Não tem dó de mim só me faz
 B   B9 B               A                  E  E4 E E4 E
chorar,  Tento lhe esquecer só pra te esquecer.       Quanta
            F#m   G#m  A
indiferença você me faz Tropeçei nas pedras do meu
   E    E4 E                         B  B9 B
caminho,   Fui amar a quem não devia amar,  E mais uma
 A         E  E4  E  E4
vez acabei sozinho.

                         B                          A           E        B         E
E|----4--5--4--5-4--------4-----4------------------------------------------------|
B|-----------------7-5-7-----7----7-5-4-5--7--5--7-5-4---------------------------|
G|-----------------------------------------------------2-1--1-2-4-------------5--|
D|----------------------------------------------------------------4-2-6-4-6-4----|
A|-------------------------------------------------------------------------------|
E|-------------------------------------------------------------------------------|

                   F#m   G#m  A
Quanta indiferença você me faz, Coração
                E      E4 E
de pedra me faz sofrer,   Não tem dó de mim só me faz
 B   B9  B                A                  E   E4  E  E4  E
chorar,    Tento lhe esquecer só pra te esquecer.             Quanta
            F#m   G#m  A
indiferença você me faz Tropeçei nas pedras do meu
   E    E4 E                         B    B9  B
caminho,   Fui amar a quem não devia amar,      E mais uma
 A         E
vez acabei sozinho.
E                         B    B9  B
Fui amar a quem não devia amar,      E mais uma
 A        E   E4   E  E4  E  E4  E
vez acabei sozinho.
Compositor não encontrado.
Colaboração e revisão:
  • Aloisio Mendes
60 exibições
    • ½ Tom
    • A
    • Bb
    • B
    • C
    • Db
    • D
    • Eb
    • E
    • F
    • F#
    • G
    • Ab
  • Adicionar à lista

    0 comentários

    Ver todos os comentários

    Conseguiu tocar?

    0 Tocaram 0 Ainda não

    Grave um vídeo tocando Coração de Pedra e nos envie!

    00:00 / 00:00
    Outros vídeos desta música
    Repetir Qualidade Automático
    Outros vídeos desta música
    00:00 / 00:00
    Automático

    Cifra Club Pro

    Aproveite o Cifra Club com benefícios exclusivos e sem anúncios
    Cifra Club Pro
    Aproveite o Cifra Club com benefícios exclusivos e sem anúncios
    OK