Cifra Club

Aprenda

Watch Over You

Alter Bridge

Cifra: Ao-vivo (violão e guitarra)
Tom: G
Afinação (D G D G B D)

Intro:
D|--0--0-0-0-0----0--0--0-|--0--0-0--0-0--0---0-0-|--0--0-0--0----0--0--0-|
B|--0--0-0-0-10---0--12-0-|--5--5-3--3-3--3---3-3-|--0--0-0--10---0--12-0-|
G|--0--0-0-0-0----0--0--0-|--0--0-0--0-0--0---0-0-|--0--0-0--0----0--0--0-|
D|--0--------10------12---|--5-------5----5-------|--0-------10------12---|
G|--0--------0-------0----|--0-------0----0-------|--0-------0-------0----|
E|------------------------|-----------------------|-----------------------|

D|--5--5-5-4--5-5-5-4--4--0-----|
B|--5--5-5-5--5-5-5-5--5--0-----|
G|--0--0-0-0--0-0-0-0--0--0-----|
D|--5--5-5-5--5-5-5-5--5--0-----|
G|--0------0--0--------0--0-----|
E|------------------------------|

D|--0--0-0-0-0----0--0--0-|--0--0-0--0-0--0---0-0-|--0--0-0--0----0--0--0-|
B|--0--0-0-0-10---0-12--0-|--5--5-3--3-3--3---3-3-|--0--0-0--10---0--12-0-|
G|--0--0-0-0-0----0--0--0-|--0--0-0--0-0--0---0-0-|--0--0-0--0----0--0--0-|
D|--0--------10-----12----|--5-------5----5-------|--0-------10------12---|
G|--0--------0------0-----|--0-------0----0-------|--0-------0-------0----|
E|------------------------|-----------------------|-----------------------|

D|--0--0-0--0-0---0---0-0----|
B|--5--5-5--5-5---5---0-0----|
G|--0--0-0--0-0---0---0-0----|
D|--5--5-5--5-5---5---0-0----|
G|--0----0----0---0-----0----|
E|---------------------------|

Verso:
D|--0--0-0-0-0----0--0--0-|--0--0-0--0-0--0---0-0-|--0--0-0--0----0--0--0-|
B|--0--0-0-0-10---0-12--0-|--5--5-3--3-3--3---3-3-|--0--0-0--10---0--12-0-|
G|--0--0-0-0-0----0--0--0-|--0--0-0--0-0--0---0-0-|--0--0-0--0----0--0--0-|
D|--0--------10-----12----|--5-------5----5-------|--0-------10------12---|
G|--0--------0------0-----|--0-------0----0-------|--0-------0-------0----|
E|------------------------|-----------------------|-----------------------|
           Leaves  are         on the ground               Fall     has

D|--0--0-0--0-0---0---0-0----|
B|--5--5-5--5-5---5---0-0----|
G|--0--0-0--0-0---0---0-0----|
D|--5--5-5--5-5---5---0-0----|
G|--0----0----0---0-----0----|
E|---------------------------|
    come

D|--0--0-0-0-0----0--0--0-|--0--0-0--0-0--0---0-0-|--0--0-0--0----0--0--0-|
B|--0--0-0-0-10---0-12--0-|--5--5-3--3-3--3---3-3-|--0--0-0--10---0--12-0-|
G|--0--0-0-0-0----0--0--0-|--0--0-0--0-0--0---0-0-|--0--0-0--0----0--0--0-|
D|--0--------10-----12----|--5-------5----5-------|--0-------10------12---|
G|--0--------0------0-----|--0-------0----0-------|--0-------0-------0----|
E|------------------------|-----------------------|-----------------------|
           Blue sky's turning grey                           Like  my

D|--0--0-0--0-0---0---0-0----|
B|--5--5-5--5-5---5---0-0----|
G|--0--0-0--0-0---0---0-0----|
D|--5--5-5--5-5---5---0-0----|
G|--0----0----0---0-----0----|
E|---------------------------|
   love

D|--0--0-0-0-0----0--0--0-|--0--0-0--0-0--0---0-0-|--0--0-0--0----0--0--0-|
B|--0--0-0-0-10---0-12--0-|--5--5-3--3-3--3---3-3-|--0--0-0--10---0--12-0-|
G|--0--0-0-0-0----0--0--0-|--0--0-0--0-0--0---0-0-|--0--0-0--0----0--0--0-|
D|--0--------10-----12----|--5-------5----5-------|--0-------10------12---|
G|--0--------0------0-----|--0-------0----0-------|--0-------0-------0----|
E|------------------------|-----------------------|-----------------------|
           I try to          carry you                       And make you

D|--0--0-0--0-0---0---0-0----|
B|--5--5-5--5-5---5---0-0----|
G|--0--0-0--0-0---0---0-0----|
D|--5--5-5--5-5---5---0-0----|
G|--0----0----0---0-----0----|
E|---------------------------|
  whole

D|--0--0-0-0-0----0--0--0-|--0--0-0--0-0--0---0-0-|--0--0-0--0----0--0--0-|
B|--0--0-0-0-10---0-12--0-|--5--5-3--3-3--3---3-3-|--0--0-0--10---0--12-0-|
G|--0--0-0-0-0----0--0--0-|--0--0-0--0-0--0---0-0-|--0--0-0--0----0--0--0-|
D|--0--------10-----12----|--5-------5----5-------|--0-------10------12---|
G|--0--------0------0-----|--0-------0----0-------|--0-------0-------0----|
E|------------------------|-----------------------|-----------------------|
             But it was              never          enough      I must

D|--0--0-0--0-0---0---0-0----|
B|--5--5-5--5-5---5---0-0----|
G|--0--0-0--0-0---0---0-0----|
D|--5--5-5--5-5---5---0-0----|
G|--0----0----0---0-----0----|
E|---------------------------|
  go

Refrão:
        Em7        D9             C9         G     D/F#
D|--0--0--0----0--0--0--0--|----0-0---0----0--0---0--0--|
B|--3--3--3----3--3--3--3--|----3-3---3----3--3---3--3--|
G|--0--0--2----2--2--2--2--|----0-0---0----0--0---2--2--|
D|--2-----2----0--0--------|----2-2---2----0--0---0--0--|
G|--2-----2----------------|----3-----3----2------0-----|
E|--0-----0----------------|---------------3------2-----|
      And who     is gonna save you When I'm gone?

       Em7        D9             C9
D|--0--0--0----0--0--0--0--|----0-0---0-----|
B|--3--3--3----3--3--3--3--|----3-3---3-----|
G|--0--0--2----2--2--2--2--|----0-0---0-----|
D|--2-----2----0--0-----0--|----2-2---2-----|
G|--2-----2----------------|----3-----3-----|
E|--0-----0----------------|----------------|
     And who'll      watch over you           When i'm gone

(Verso)

(Refrão)

Interlúdio:
D|-------------------------|-------------------------------|
B|-10-12-13-13-13-10-10-12-|-12-12-12-15-15-15-13-12h13p12-|
G|--0--0--0--0--0--0--0--0-|--0--0--0--0--0--0--0--0-------|
D|--0--0--0--0--0--0--0--0-|--0--0--0--0--0--0--0--0-------|
G|--0--0--0--0--0--0--0--0-|--0--0--0--0--0--0--0--0-------|
E|-------------------------|-------------------------------|

D|-------------------------|--------------------------|
B|-10-12-12-13-13-10-10-12-|-12-12-12-15-15-15-15-15--|
G|--0--0--0--0--0--0--0--0-|--0--0--0--0--0--0--0--0--|
D|--0--0--0--0--0--0--0--0-|--0--0--0--0--0--0--0--0--|
G|--0--0--0--0--0--0--0--0-|--0--0--0--0--0--0--0--0--|
E|-------------------------|--------------------------|

E|--0--0--0----0--0--0--0--|----------------0-0---0----------0--0---0---0--|
B|--3--3--3----5--5--5--5--|----------------3-3---3----------7--7---7---7--|
G|--0--0--2----0--0--0--0=-|----------------0-0---0----------0--0---0---0--|
D|--2-----2----0--0-----0--|----------------0-0---0----------0--0---0---0--|
G|--2-----2----5--------5--|----------------5-----5----------7------7---7--|
E|--0-----0----------------|-----------------------------------------------|
  And when I'm gone  Who will break your fall? Who will you blame?

D|--0--0--0----0--0--0--0--|----------------0-0---0----------0--0---0---0--|
B|--3--3--3----5--5--5--5--|----------------3-3---3----------7--7---7---7--|
G|--0--0--2----0--0--0--0=-|----------------0-0---0----------0--0---0---0--|
D|--2-----2----0--0-----0--|----------------0-0---0----------0--0---0---0--|
G|--2-----2----5--------5--|----------------5-----5----------7------7---7--|
E|--0-----0----------------|-----------------------------------------------|
I can't go on        And let you lose it all   I'ts more than I can take

D|--0--0--0----0--0--0--0--|
B|--3--3--3----5--5--5--5--|
G|--0--0--2----0--0--0--0=-|
D|--2-----2----0--0-----0--|
G|--2-----2----5--------5--|
E|--0-----0----------------|
Who'll ease your pain?           Ease your pain...

Refrão:
        Em7        D9             C9         G     D/F#
D|--0--0--0----0--0--0--0--|----0-0---0----0--0---0--0--|
B|--3--3--3----3--3--3--3--|----3-3---3----3--3---3--3--|
G|--0--0--2----2--2--2--2--|----0-0---0----0--0---2--2--|
D|--2-----2----0--0--------|----2-2---2----0--0---0--0--|
G|--2-----2----------------|----3-----3----2------0-----|
E|--0-----0----------------|---------------3------2-----|
      And who is gonna save you when I'm gone?
       Em7        D9              C9                  G      D/F#
D|--0--0--0----0--0--0--0--|----0-0---0-------------0--0---0--0--|
B|--3--3--3----3--3--3--3--|----3-3---3-------------3--3---3--3--|
G|--0--0--2----2--2--2--2--|----0-0---0-------------0--0---2--2--|
D|--2-----2----0--0-----0--|----2-2---2--2--0-------0--0---0--0--|
G|--2-----2----------------|----3-----3--3--2--0-2--2------0-----|
E|--0-----0----------------|---------------------3--3------2-----|
     And who'll      watch over you?
  Em7        D9                   C9         G     D/F#
D|--0--0--0----0--0--0--0--|----0-0---0----0--0---0--0--|
B|--3--3--3----3--3--3--3--|----3-3---3----3--3---3--3--|
G|--0--0--2----2--2--2--2--|----0-0---0----0--0---2--2--|
D|--2-----2----0--0--------|----2-2---2----0--0---0--0--|
G|--2-----2----------------|----3-----3----2------0-----|
E|--0-----0----------------|---------------3------2-----|
   And who'll give you strength when you're not strong?
   Em7        D9             C9
D|--0--0--0----0--0--0--0--|----0-0---0-----|
B|--3--3--3----3--3--3--3--|----3-3---3-----|
G|--0--0--2----2--2--2--2--|----0-0---0-----|
D|--2-----2----0--0-----0--|----2-2---2-----|
G|--2-----2----------------|----3-----3-----|
E|--0-----0----------------|----------------|
Who'll watch over you when I'm gone away?

D|--0--0-0-0-0----0--0--0-|--0--0-0--0-0--0---0-0-|--0--0-0--0----0--0--0-|
B|--0--0-0-0-10---0-12--0-|--5--5-3--3-3--3---3-3-|--0--0-0--10---0--12-0-|
G|--0--0-0-0-0----0--0--0-|--0--0-0--0-0--0---0-0-|--0--0-0--0----0--0--0-|
D|--0--------10-----12----|--5-------5----5-------|--0-------10------12---|
G|--0--------0------0-----|--0-------0----0-------|--0-------0-------0----|
E|------------------------|-----------------------|-----------------------|
           Snow      is       on the ground                  Winter's
D|--0--0-0--0-0---0---0-0----|
B|--5--5-5--5-5---5---0-0----|
G|--0--0-0--0-0---0---0-0----|
D|--5--5-5--5-5---5---0-0----|
G|--0----0----0---0-----0----|
E|---------------------------|
   come
D|--0--0-0-0-0----0--0--0-|--0--0-0--0-0--0---0-0-|--0--0-0--0----0--0--0-----0-|
B|--0--0-0-0-10---0-12--0-|--5--5-3--3-3--3---3-3-|--0--0-0--10---0--8--0-----3-|
G|--0--0-0-0-0----0--0--0-|--0--0-0--0-0--0---0-0-|--0--0-0--0----0--0--0-----0-|
D|--0--------10-----12----|--5-------5----5-------|--0-------10------10-------0-|
G|--0--------0------0-----|--0-------0----0-------|--0-------0-------0--------2-|
E|------------------------|-----------------------|---------------------------3-|
   You long         to       hear my voice                  But I'm long    gone
Composição de Mark Tremonti / Myles Kenedy
Colaboração e revisão:
  • Leonardo Oliveira
14.752 exibições
    • ½ Tom
    • A
    • Bb
    • B
    • C
    • Db
    • D
    • Eb
    • E
    • F
    • F#
    • G
    • Ab
  • Adicionar à lista

    0 comentários

    Mostrar mais comentários

    Conseguiu tocar?

    6 Tocaram 0 Ainda não

    Grave um vídeo tocando Watch Over You e mande pra gente!

    00:00 / 00:00
    outros vídeos desta música
    repetir qualidade Automático
    Outros vídeos desta música
    00:00 / 00:00
    Automático
    Capítulos
    • Apresentação / Equipamentos
    • Tocando a Música
    • Afinação
    • Configurações dos Pedais
    • Acordes Introdução e Primeira Estrofe
    • Ritmo Introdução e Primeira Estrofe
    • Riff Primeira Parte
    • Acordes Passagem Primeira Parte
    • Acordes Primeiro Refrão
    • Ritmo Primeiro Refrão
    • Dicas Segunda Estrofe
    • Ensinando Guitarra Solo - Segunda Estrofe
    • Dicas Segundo Refrão
    • Riff Segundo Refrão
    • Ensinando Passagem
    • Acordes Terceira Estrofe
    • Ritmo Terceira Estrofe
    • Riff Terceira Estrofe
    • Acordes Terceiro Refrão
    • Ritmo Terceiro Refrão
    • Acordes Parte Final
    • Ritmo Parte Final
    • Encerramento

    Cifra Club Pro

    Aproveite o Cifra Club com benefícios exclusivos e sem anúncios
    7 dias grátis
    Cifra Club Pro
    Aproveite o Cifra Club com benefícios exclusivos e sem anúncios
    7 dias grátis
    OK