Cifra Club

Aprenda

Watch Over You

Alter Bridge

Cifra: Guitarra (violão e guitarra)
Tom: G
[Intro] G  G4(9)  G  C9 
        G  G4(9)  G  C9  D11    

[Primeira Estrofe]

  H.N.
E|---7-------------------------------------------------|
B|-7---------------------13p12h13~~--------------------|
G|-----------------------------------------------------|
D|-----------------------------------------------------|
A|-----------------------------------------------------|
E|-----------------------------------------------------|

  H.N    .
E|-----------------------------------------------------|
B|-7----12---------------13p12-13/15~~-----------------|
G|-----------------------------------------------------|
D|-----------------------------------------------------|
A|-----------------------------------------------------|
E|-----------------------------------------------------|

G  G4(9)  G   C9   
  Leaves  are on the ground
G  G4(9)  G   C9  D11
  Fall   has come
G   G4(9)  G    C9 
  Blue   sky's turning grey
G  G4(9)  G  C9  D11
  Like   my love

  H.N.
E|---7-------------------------------------------------|
B|-7---------------------13p12h13~~--------------------|
G|-----------------------------------------------------|
D|-----------------------------------------------------|
A|-----------------------------------------------------|
E|-----------------------------------------------------|

  H.N    .
E|-----------------------------------------------------|
B|-7----12---------------------------------------------|
G|-----------------------------------------------------|
D|-----------------------------------------------------|
A|-----------------------------------------------------|
E|-----------------------------------------------------|

E|-----------------------------------------------------|
B|-12-12-12-12-12-12-12-12-12-12-12-12-13-13-13-12-----|
G|-----------------------------------------------------|
D|-----------------------------------------------------|
A|-----------------------------------------------------|
E|-----------------------------------------------------|

G     G4(9)  G  C9
  I try     to carry you
G      G4(9)  G    C9  D11
  And make   you whole
G     G4(9)  G   C9     G   
  But it    was never enough
G4(9)  G      G/F#
I     must go

[Refrão]

      Em7  D           C9 
And who      is gonna save you
          G    D6/F#
When I'm gone?
      Em7  D                 C9
And who______'ll watch over you

When I'm gone?

[Interlúdio] G  G4(9)  G  C9 
             G  G4(9)  G  C9  D11       

[Segunda Estrofe]

  H.N    .
E|-----------------------------------------------------|
B|-7----12---------------------------------------------|
G|-----------------------------------------------------|
D|-----------------------------------------------------|
A|-----------------------------------------------------|
E|-----------------------------------------------------|

  H.N.                   .     .
E|---7-------------------------------------------------|
B|-7---------------------7----12-----------------------|
G|-----------------------------------------------------|
D|-----------------------------------------------------|
A|-----------------------------------------------------|
E|-----------------------------------------------------|

E|-----------------------------------------------------|
B|-12-12-12-12-12-12-12-12-12-12-12-12-13-13-13-12-----|
G|-----------------------------------------------------|
D|-----------------------------------------------------|
A|-----------------------------------------------------|
E|-----------------------------------------------------|

G      G4(9)  G   C9   
  You say    you care for me
G      G4(9)  G   C9  D11
  But hide    it well
G      G4(9)  G   C9      G
  How can    you love someone
     G4(9)  G        G/F#
And not    yourself?

[Refrão]

E|-----------------------------------------------------|
B|-15---------b17--------r15------------13-------------|
G|-----------------------------------------------------|
D|-----------------------------------------------------|
A|-----------------------------------------------------|
E|-----------------------------------------------------|

      Em7  D           C9 
And who      is gonna save you
          G    D6/F#
When I'm gone?
      Em7  D                 C5
And who______'ll watch over you
          G5   G5/F#
When I'm gone?

Passagem – Guitarra 1

E|-----------10--------------12-12-12-10---------------|
B|-10h12--12-----10--12--12--------------12h13p12p10---|
G|-----------------------------------------------------|
D|-----------------------------------------------------|
A|-----------------------------------------------------|
E|-----------------------------------------------------|

E|-----------10-----------------12-12-12-12-12-12-12-12|
B|-10h12--12-----10--12--12----------------------------|
G|-----------------------------------------------------|
D|-----------------------------------------------------|
A|-----------------------------------------------------|
E|-----------------------------------------------------|

Passagem – Guitarra 2

E|-----------------------------------------------------|
B|----------10-----------12-12-12-12-12-12-12-12-12-12-|
G|-11h12-12----11-12-12--------------------------------|
D|-----------------------------------------------------|
A|-----------------------------------------------------|
E|-----------------------------------------------------|

[Terceira Estrofe]

E|-----------------------------------------------------|
B|-b17---------r15---------b17---------r15-------------|
G|-----------------------------------------------------|
D|-----------------------------------------------------|
A|-----------------------------------------------------|
E|-----------------------------------------------------|

E|-----------------------------------------------------|
B|-b17---------------------r15-------------------------|
G|-----------------------------------------------------|
D|-----------------------------------------------------|
A|-----------------------------------------------------|
E|-----------------------------------------------------|

E5               C5
   And when I'm gone
                     G9
Who will break your fall?
               D5   E5
Who will you blame?

              C5
I can't go on
                    G9
And let you lose it all
                      D5  E5
I'ts more than I can take
                  C5
Who'll ease your pain?
           G  G4(9)  G  G4(9)  G
Ease your pain

( G  G4(9)  G  G4(9)  G  G/F# )

[Refrão]

      E5  D5           C5
And who      is gonna save you
          G9   G9/F#
When I'm gone?
      E5  D5                 C5  
And who______'ll watch over you?

( C  B  A  )  G9  G9/F#

      E5  D5                 C5
And who______'ll give you strength 
                   G9   
When you're not strong?
  G9/F#      E5       
Who'll watch over you 
  D5            C5
When I'm gone away?

[Final]

G   G4(9)  G  C9
  Snow     is on the ground
G  G4(9)  G     C9
  Win____ter's come
G      G4(9)  G  C9
  You long   to hear my voice
G     G4(9)  G
  But I'm   long gone
Composição de Mark Tremonti / Myles Kenedy
Colaboração e revisão:
  • Vinícius Dias
3.976 exibições
    • ½ Tom
    • A
    • Bb
    • B
    • C
    • Db
    • D
    • Eb
    • E
    • F
    • F#
    • G
    • Ab
  • Adicionar à lista

    0 comentários

    Mostrar mais comentários

    Conseguiu tocar?

    2 Tocaram 0 Ainda não

    Grave um vídeo tocando Watch Over You e mande pra gente!

    00:00 / 00:00
    outros vídeos desta música
    repetir qualidade Automático
    Outros vídeos desta música
    00:00 / 00:00
    Automático
    Capítulos
    • Apresentação / Equipamentos
    • Tocando a Música
    • Afinação
    • Configurações dos Pedais
    • Acordes Introdução e Primeira Estrofe
    • Ritmo Introdução e Primeira Estrofe
    • Riff Primeira Parte
    • Acordes Passagem Primeira Parte
    • Acordes Primeiro Refrão
    • Ritmo Primeiro Refrão
    • Dicas Segunda Estrofe
    • Ensinando Guitarra Solo - Segunda Estrofe
    • Dicas Segundo Refrão
    • Riff Segundo Refrão
    • Ensinando Passagem
    • Acordes Terceira Estrofe
    • Ritmo Terceira Estrofe
    • Riff Terceira Estrofe
    • Acordes Terceiro Refrão
    • Ritmo Terceiro Refrão
    • Acordes Parte Final
    • Ritmo Parte Final
    • Encerramento

    Cifra Club Pro

    Aproveite o Cifra Club com benefícios exclusivos e sem anúncios
    Cifra Club Pro
    Aproveite o Cifra Club com benefícios exclusivos e sem anúncios
    OK