Cifra Club

Aprenda

Wonderful Life

Alter Bridge

Cifra: Versão 2 (violão e guitarra)
tom: D
(intro 2x)
D|----------0--------------------------0--12---------------0-------0---------0---------0-------------
B|--12-----------12/13--13--10/12-------------13--12--8-------7-------3/5---------5------------------
G|---------------------------------------------------------------------------------------------------
D|---------------------------------------------------------------------------------------------------
G|--12--12----12--------12--11-----11-----11--11--11--9--9----9--9----5----5----5---5----------------
D|---------------------------------------------------------------------------------------------------

(verso)
D|-0--0-0-0-0-0-0-0-|-0--0-0-0-0-0-0-0-0-|-0--0-0-0-0-0-0--0--0--0--0---
B|-3--3-3-3-3-3-3-3-|-3--3-3-3-3-3-3-3-3-|-5--5-5-5-5-5-5--7--8--5--12--
G|-0--0-0-0-0-0-0-0-|-0--0-0-0-0-0-0-0-0-|-0--0-0-0-0-0-0--0--0--0--0---
D|-0--0-0-0-0-0-0-0-|-4--4-4-4-4-4-4-4-4-|-0--0-0-0-0-0-0--0--0--0--0---
G|-4--4-4-4-4-4-4-4-|-2--2-2-2-2-2-2-2-2-|-5--5-5-5-5-5-5--7--8--5--12--
D|-2--2-2-2-2-2-2-2-|-0--0-0-0-0-0-0-0-0-|-0--0-0-0-0-0-0--0--0--0--0---

D|-0--0-0-0-0-0-0-0-|-0--0-0-0-0-0-0-0-0-|-0--0-0-0-0-0-0--
B|-3--3-3-3-3-3-3-3-|-3--3-3-3-3-3-3-3-3-|-2--2-2-2-2-2-2--
G|-0--0-0-0-0-0-0-0-|-0--0-0-0-0-0-0-0-0-|-0--0-0-0-0-0-0--
D|-0--0-0-0-0-0-0-0-|-4--4-4-4-4-4-4-4-4-|-0--0-0-0-0-0-0--
G|-4--4-4-4-4-4-4-4-|-2--2-2-2-2-2-2-2-2-|-2--2-2-2-2-2-2--
D|-2--2-2-2-2-2-2-2-|-0--0-0-0-0-0-0-0-0-|-0--0-0-0-0-0-0--

(refrão)
(2x)                         
D|-0-0-0-0-0-0-0-0-0-0--0---0--0-0-0|--0-0-0-0-0-0-0-0-0-0|
B|-5-5-5-5-5-5-5-5-5-5--0---0--0-0-0|--3-3-3-3-3-3-3-3-3-3|
G|-0-0-0-0-0-0-0-0-0-0--2/4-4--0-0-0|--0-0-0-0-0-0-0-0-0-0|
D|-0-0-0-0-0-0-0-0-0-0--0---0--4-4-4|--0-0-0-0-0-0-0-0-0-0|
G|-5-5-5-5-5-5-5-5-5-5--0---0--0-0-0|--4-4-4-4-4-4-4-4-4-4|
D|-0-0-0-0-0-0-0-0-0-0--0---0--4-4-4|--2-2-2-2-2-2-2-2-2-2|

D|-0-0-0-0-0-0-0-
B|-7-7-7-7-7-7-7--
G|-0-0-0-0-0-0-0--
D|-0-0-0-0-0-0-0--
G|-7-7-7-7-7-7-7--
D|-0-0-0-0-0-0-0--

(intro)

(verso 2)
D|-0--0-0-0-0-0-0-0-|-0--0-0-0-0-0-0-0-0-|-0--0-0-0-0-0-0--0--0--0--0---
B|-3--3-3-3-3-3-3-3-|-3--3-3-3-3-3-3-3-3-|-5--5-5-5-5-5-5--7--8--5--12--
G|-0--0-0-0-0-0-0-0-|-0--0-0-0-0-0-0-0-0-|-0--0-0-0-0-0-0--0--0--0--0---
D|-0--0-0-0-0-0-0-0-|-4--4-4-4-4-4-4-4-4-|-0--0-0-0-0-0-0--0--0--0--0---
G|-4--4-4-4-4-4-4-4-|-2--2-2-2-2-2-2-2-2-|-5--5-5-5-5-5-5--7--8--5--12--
D|-2--2-2-2-2-2-2-2-|-0--0-0-0-0-0-0-0-0-|-0--0-0-0-0-0-0--0--0--0--0---

D|-0--0-0-0-0-0-0-0-|-0--0-0-0-0-0-0-0-0-|-0--0-0-0-0-0-0--
B|-3--3-3-3-3-3-3-3-|-3--3-3-3-3-3-3-3-3-|-2--2-2-2-2-2-2--
G|-0--0-0-0-0-0-0-0-|-0--0-0-0-0-0-0-0-0-|-0--0-0-0-0-0-0--
D|-0--0-0-0-0-0-0-0-|-4--4-4-4-4-4-4-4-4-|-0--0-0-0-0-0-0--
G|-4--4-4-4-4-4-4-4-|-2--2-2-2-2-2-2-2-2-|-2--2-2-2-2-2-2--
D|-2--2-2-2-2-2-2-2-|-0--0-0-0-0-0-0-0-0-|-0--0-0-0-0-0-0--

(refrão 2)
(2x)
D|-0-0-0-0-0-0-0-0-0-0--0---0--0-0-0|--0-0-0-0-0-0-0-0-0-0|
B|-5-5-5-5-5-5-5-5-5-5--0---0--0-0-0|--3-3-3-3-3-3-3-3-3-3|
G|-0-0-0-0-0-0-0-0-0-0--2/4-4--0-0-0|--0-0-0-0-0-0-0-0-0-0|
D|-0-0-0-0-0-0-0-0-0-0--0---0--4-4-4|--0-0-0-0-0-0-0-0-0-0|
G|-5-5-5-5-5-5-5-5-5-5--0---0--0-0-0|--4-4-4-4-4-4-4-4-4-4|
D|-0-0-0-0-0-0-0-0-0-0--0---0--4-4-4|--2-2-2-2-2-2-2-2-2-2|

D|-0-0-0-0-0-0-0-
B|-7-7-7-7-7-7-7--
G|-0-0-0-0-0-0-0--
D|-0-0-0-0-0-0-0--
G|-7-7-7-7-7-7-7--
D|-0-0-0-0-0-0-0--

  And all that I am…
D|0-0-0-0-0-0-0-0-0--0-0-0-0-0-0-0-0-0--0-0-0-0-0-0-0-0--0-0-0-0-0-0-0--
B|1-1-1-1-1-1-1-1-1--1-1-1-1-1-1-1-1-1--0-0-0-0-0-0-0-0--7-7-7-7-7-7-7--
G|0-0-0-0-0-0-0-0-0--0-0-0-0-0-0-0-0-0--0-0-0-0-0-0-0-0--0-0-0-0-0-0-0--
D|3-3-3-3-3-3-3-3-3--2-2-2-2-2-2-2-2-2--5-5-5-5-5-5-5-5--0-0-0-0-0-0-0--
G|0-0-0-0-0-0-0-0-0--0-0-0-0-0-0-0-0-0--0-0-0-0-0-0-0-0--7-7-7-7-7-7-7--
D|3-3-3-3-3-3-3-3-3--2-2-2-2-2-2-2-2-2--5-5-5-5-5-5-5-5--0-0-0-0-0-0-0--

D|0-0-0-0-0-0-0-0-0--0-0-0-0-0-0-0-0-0--0-0-0-0-0-0---0-0-0-0-0-0--
B|1-1-1-1-1-1-1-1-1--1-1-1-1-1-1-1-1-1--0-0-0-0-0-0---0-0-0-0-0-0--
G|0-0-0-0-0-0-0-0-0--0-0-0-0-0-0-0-0-0--0-0-0-0-0-0---2-4-5-4-2-0--
D|3-3-3-3-3-3-3-3-3--2-2-2-2-2-2-2-2-2--0-0-0-0-0-0---0-0-0-0-0-0--
G|0-0-0-0-0-0-0-0-0--0-0-0-0-0-0-0-0-0--0-0-0-0-0-0---0-0-0-0-0-0--
D|3-3-3-3-3-3-3-3-3--2-2-2-2-2-2-2-2-2--0-0-0-0-0-0---0-0-0-0-0-0--

D|0-0-0-0-0-0-0-0-0--0-0-0-0-0-0-0-0-0--0-0-0-0-0-0-0-0--0-0-0-0-0-0-0--
B|1-1-1-1-1-1-1-1-1--1-1-1-1-1-1-1-1-1--0-0-0-0-0-0-0-0--7-7-7-7-7-7-7--
G|0-0-0-0-0-0-0-0-0--0-0-0-0-0-0-0-0-0--0-0-0-0-0-0-0-0--0-0-0-0-0-0-0--
D|3-3-3-3-3-3-3-3-3--2-2-2-2-2-2-2-2-2--5-5-5-5-5-5-5-5--0-0-0-0-0-0-0--
G|0-0-0-0-0-0-0-0-0--0-0-0-0-0-0-0-0-0--0-0-0-0-0-0-0-0--7-7-7-7-7-7-7--
D|3-3-3-3-3-3-3-3-3--2-2-2-2-2-2-2-2-2--5-5-5-5-5-5-5-5--0-0-0-0-0-0-0--

(refrão 4x)
D|-0-0-0-0-0-0-0-0-0-0--0---0--0-0-0|--0-0-0-0-0-0-0-0-0-0|
B|-5-5-5-5-5-5-5-5-5-5--0---0--0-0-0|--3-3-3-3-3-3-3-3-3-3|
G|-0-0-0-0-0-0-0-0-0-0--2/4-4--0-0-0|--0-0-0-0-0-0-0-0-0-0|
D|-0-0-0-0-0-0-0-0-0-0--0---0--4-4-4|--0-0-0-0-0-0-0-0-0-0|
G|-5-5-5-5-5-5-5-5-5-5--0---0--0-0-0|--4-4-4-4-4-4-4-4-4-4|
D|-0-0-0-0-0-0-0-0-0-0--0---0--4-4-4|--2-2-2-2-2-2-2-2-2-2|

D|-0-0-0-0-0-0-0-
B|-7-7-7-7-7-7-7--
G|-0-0-0-0-0-0-0--
D|-0-0-0-0-0-0-0--
G|-7-7-7-7-7-7-7--
D|-0-0-0-0-0-0-0--

(final)
D|----------------------------------
B|----------------------------------
G|-0--0--0--0--0--0---0---0---0--0--
D|-2--4--5--7--9--11--14--10--9--7--
G|-0--0--0--0--0--0---0---0---0--0--
D|-2--4--5--7--9--11--14--10--9--7-

D|----------------------------
B|----------------------------
G|-0--0--0--0--0--0---0---0---
D|-2--4--5--7--9--11--14--10--
G|-0--0--0--0--0--0---0---0---
D|-2--4--5--7--9--11--14--10--
Composição de Mark Tremonti / Myles Kennedy
Colaboração e revisão:
  • bruno gonçalves
3.491 exibições
    • ½ Tom
    • A
    • Bb
    • B
    • C
    • Db
    • D
    • Eb
    • E
    • F
    • F#
    • G
    • Ab
  • Adicionar à lista

    0 comentários

    Ver todos os comentários

    Conseguiu tocar?

    2 Tocaram 0 Ainda não

    Grave um vídeo tocando Wonderful Life e nos envie!

    00:00 / 00:00
    outros vídeos desta música
    repetir qualidade Automático
    Outros vídeos desta música
    00:00 / 00:00
    Automático

    Cifra Club Pro

    Aproveite o Cifra Club com benefícios exclusivos e sem anúncios
    Cifra Club Pro
    Aproveite o Cifra Club com benefícios exclusivos e sem anúncios
    OK