Sticks And Stones

Aly & AJ

tom: G
Sticks and Stones
Into The Rush
2005 Holywood Records
Submitted by: *
This is 100% correct for Aj, coz I listened to it carefully
95% only for Aly coz the bridge is not easy to predict

Tuning: Standard EADGBe

Chords used:
G/B -    x20003

Intro:

Aly:
e|-19-19-19----------15-15-15----------------------|
B|----------17-17-17----------13-13-13-15-15-12-12-|
G|-------------------------------------------------|
D|-------------------------------------------------| (x2)
A|-------------------------------------------------|
E|-------------------------------------------------|

Aj: Am (x2)

Verse 1:

Aly: Same as Intro at 0:15 to 0:19 and 0:30 to 0:34

Aj:
Am
Sitting in my room feelin' sorry For myself - I can't feel worse
          G       F                   Am
Well what else? I wonder what I could say
   Am
To stop the voices taunting, laughing
                                                G
The way they're acting, I wish they'd just disappear
    F
The joke is always on me (it's always on me)


Refrain 1:

Aly:
e|-8---7-8----7-8--|
B|---8------8------|
G|-----------------|
D|-----------------| (x10)
A|-----------------|
E|-----------------|

Aj:
C              G/B   Am        G              F
Why don't they understand That we are all the same
                              C              G/B   Am
And we all feel lost at times Why don't they understand
     G              F     (Break)
That someone else's pain, Is not for gain


Chorus:

Aly: 0:59 to 1:06                                     1:07
e|-13-13-13-12-12-12-12-12-------------------------|-8-----7-|
B|-------------------------15-15-15-13-13-13-------|-----8---|
G|-------------------------------------------12-12-|---9-----|
D|-------------------------------------------------|---------|
A|-------------------------------------------------|---------|
E|-------------------------------------------------|---------|
                       x2                                x2

Aly: 1:10 to 1:12                                     1:13
e|-13-13-13-12-12-12-12-12-------------------------|-4~------|
B|-------------------------15-15-15-13-13-13-------|-6~------|
G|-------------------------------------------12-12-|-5~------|
D|-------------------------------------------------|---------|
A|-------------------------------------------------|---------|
E|-------------------------------------------------|---------|


Aj:
C                       G/B
Sticks and stones won't break my soul
    Am                    G
Get out of the way, I'm invincible
F                                              C
Throw them down 'Cause the one you hurt's not around
     G/B        Fm(Break)
Not around It's not your place - honestly


Verse 2:

Aly: 1:17 to 1:28
e|-19-19-19----------15-15-15----------------------|
B|----------17-17-17----------13-13-13-15-15-12-12-|
G|-------------------------------------------------|
D|-------------------------------------------------| (x3)
A|-------------------------------------------------|
E|-------------------------------------------------|

Aly: 1:30
e|-19~--
B|-20~--
G|-19~--
D|------|
A|------|
E|------|

Aj:
Am                                                                      G
In the end you'll be the victim You're the one who has to live with yourself
    F                        Am
And when you're reachin' for help They'll be no one (there's no one)

Refrain 2:

Aly:
e|-8---7-8----7-8--|
B|---8------8------|
G|-----------------|
D|-----------------| (x10)
A|-----------------|
E|-----------------|

Aj:
C             G/B   Am        G              F
Why don't you understand That we are all the same
                              C             G/B   Am
And we all feel lost at times Why don't you understand
     G              F     (Break)
That someone else's pain, Is not for gain


Chorus 2:

Aly: Same Riff as Chorus 1:

Aj:
C                       G/B
Sticks and stones won't break my soul
    Am                    G
Get out of the way, I'm invincible
F                                              C
Throw them down 'Cause the one you hurt's not around
     G/B        Fm               Fm
Not around It's not your place - honestly


Bridge:

Aly: 2:15 to 2:29
e|-13-13-13-12-12-12-12-12-------------------------|
B|-------------------------15-15-15-13-13-13-------|
G|-------------------------------------------12-12-|
D|-------------------------------------------------|
A|-------------------------------------------------|
E|-------------------------------------------------|
                  x4

Aly: 2:30 to 2:33                              2:36
e|-8-----8-----8-----8-----8---8---|-13-13-13-13-13-12-12-12-|
B|-----8-----8-----8-----8---8---8-|-------------------------|
G|---9-----9-----9-----9-----------|-------------------------|
D|---------------------------------|-------------------------|
A|---------------------------------|-------------------------|
E|---------------------------------|-------------------------|
               x2

Aj:
Bb                              C
I won't live in chains I've got somethin' to give
        Bb              G#         C
I won't play these games Yeah, I'd rather live
              Bb
You know I've come too far - to be like you are


Refrain 3:

Aly: 2:43    2:44
e|-17~----|----------------12----12-|
B|--------|-------13----13----13----|
G|--------|----12----12-------------|
D|--------|-14----------------------|
A|--------|-------------------------|
E|--------|-------------------------|


Aj: Palm mute only
C             G/B   Am
Why don't you understand
     G              F
That we are all the same


Chorus 2:

Aly: Same riff as Chorus 1

Aj:
C                       G/B
Sticks and stones won't break my soul
    Am                    G
Get out of the way, I'm invincible
Fm
Throw them down
C                 G/B              Am                 G
La la la, la, la, La la la, la, la, La la la, la, la, La, la, la
C                                            C
Throw them down 'Cuz the one you hurt's not around (not around)
     G/B                     Am       G
Not around (not around) Not around anymore
     Fm(Break)
It's not your place - honestly

Outro:

Aly:
e|-8---7-8----7-8-|-4~--|
B|---8------8-----|-6~--|
G|----------------|-5~--|
D|----------------|-----|
A|----------------|-----|
E|----------------|-----|
         x10

Aj: C-G/B-Am-G-F--C-G/B-Am-G-Fm
Página 1 / 1

Letras e título
Acordes e artista

resetar configurações
OK