Cifra Club

Carta Sobre a Mesa

Amado Batista

Cifra: Principal
exibições 190.860
Tom: A
[Intro]  A  A7  D  E7  A  A7  D  E7  A

E|-------12-10-12-10-8-----8-8-7-8-7-5----5-5-3-5-3-3--10-10-10--8--8--8-7-7-7-|
B|-----------------------------------------------------12-12-12-10-10-10-8-8-8-|
G|-12-12-12-10-12-10-9---9-----7-9-7-5--5-----4-5-4-4--------------------------|
D|-----------------------------------------------------------------------------|
A|-----------------------------------------------------------------------------|
E|-----------------------------------------------------------------------------|

E|------------------------------------------------------10-8-----12--10--8-----|
B|-12-12-12-12-11-10--10-10-10-10-11-12-----10-12-10---------------------------|
G|----------12-11-10-----------10-11-12--12----------12-------12--10--9--------|
D|-----------------------------------------------------------------------------|
A|-----------------------------------------------------------------------------|
E|-----------------------------------------------------------------------------|

E|-3-3-3-1-3-5---5-5-5-3-5-7---7-7-7--8-10-12----------------------------------|
B|-5-5-5-3-5-6---6-6-6-5-6-8---8-8-8-10-12-13----------------------------------|
G|-----------------------------------------------------------------------------|
D|-----------------------------------------------------------------------------|
A|-----------------------------------------------------------------------------|
E|-----------------------------------------------------------------------------|

E|-3-3-1-3-5---5-5-3-5-7---7-7--8-10-12--8-------------------------------------|
B|-5-5-3-5-6---6-6-5-6-8---8-8-10-12-13--8-------------------------------------|
G|---------------------------------------9-------------------------------------|
D|-----------------------------------------------------------------------------|
A|-----------------------------------------------------------------------------|
E|-----------------------------------------------------------------------------|

  A
 Deixe-me renascer 
 Viver e crescer 
              E7
 E morrer em paz 
                          D
 A nossa estrada era tão larga 
          A
 Já não existe mais 
 Você era a vida 
 A esposa e amiga 
            E7
 A minha namorada 
                                   D
 Você era na cama, minha prenda e dama  
           A          A7
 Antes daquela carta 
                   D
 Que você me escreveu 
                 E7
 Deixou sobre a mesa 
            A   A7
 E desapareceu 
                   D
 Que você me escreveu 
                 E7
 Deixou sobre a mesa 
            A   E7
 E desapareceu 
  A
 Dizia a tal carta 
 Que você não me amava 
                 E7
 E tinha que partir 
                                         D
 Ia embora com outro, e eu morrendo aos poucos 
         A
 Para você não ir 
 Perdi toda calma 
 Procurei em minha alma 
                   E7
 Algo para lhe esquecer 
                                    D
 Fiquei na loucura, andei noites escuras 
             A        A7
 Procurando por você 
                  D
 Mas foi tudo em vão 
              E7
 E o meu coração 
               A    A7
 Sofrendo por você 
                  D
 Mas foi tudo em vão 
              E7
 E o meu coração 
               A    E7
 Sofrendo por você 
     A
 Já faz alguns anos 
 E Talvez por engano 
               E7
 Você quer voltar 
                                   D
 Não tens meu perdão, mas meu coração 
             A
 Pede pra você ficar 
 Não vou resistir 
 Não quero insistir 
                   E7
 Mas tenho que esquecer 
                                   D
 Esqueça meu drama, volte a nossa cama 
               A     A7
 E venha me aquecer 
                  D
 E não vá mais embora 
                      E7
 Se você for alguém chora 
                   A   A7
 E esse alguém sou eu 
                  D
 E não vá mais embora 
                      E7
 Se você for alguém chora 
                   A
 E esse alguém sou eu
Acordes para:
    Colaboração e revisão:
    • Rivaldo Rodrigues
    • Breno Correia
    • antonio cunha

    0 comentários

      mostrar mais comentários

      Conseguiu tocar?

      12tocaram0ainda não

      Grave um vídeo tocando Carta Sobre a Mesa e mande pra gente!

      00:00 / 00:00
      outros vídeos desta música
      repetirqualidadeautomática
      Outro vídeos desta música
        00:00 / 00:00
        automática
        OK