Enviar cifraEntrar

Velha Carta

Amado Batista

Cifra: Principal
exibições 36.612
Tom: C
Intro: 

     C                                      G
E|---------------------------------------------------------------------------|
B|----------------------------------------------------------------0----------|
G|------0-0h2-0-----0------0-0h2-0-----0----------------------------2-0-2----|
D|----2---------0h2------2---------0h2---------0-2/3-2-0-------0-------------|   2x
A|--3------------------3---------------------2-----------2---2---------------|
E|-----------------------------------------3---------------3-----------------|


C                   G
Hoje me veio  à cabeça
                  C
E uma velha mala abri
                        G
Que eu guardava os meus segredos
                      C
Dos bons tempos que vivi
C7                    F
Encontrei uma velha carta
G                    C
Da mulher que mais amei
                 G
Cada frase uma saudade
                   C
Que sempre carregarei
C  G/B  Am   G
        Só ela
                      C
Me fez o homem mais feliz
C  G/B  Am   G
        Foi ela
                      C
A mulher que eu mais quis


     C                                      G
E|---------------------------------------------------------------------------|
B|----------------------------------------------------------------0----------|
G|------0-0h2-0-----0------0-0h2-0-----0----------------------------2-0-2----|
D|----2---------0h2------2---------0h2---------0-2/3-2-0-------0-------------|   2x
A|--3------------------3---------------------2-----------2---2---------------|
E|-----------------------------------------3---------------3-----------------|


 C                    G
Ela vive em outros braços
                     C
O seu corpo já tem dono
                  G
No seu dedo uma aliança
                     C
Destruindo os meus planos
C7                    F
De olhos baixos  nas ruas
G                 C
Já estou pra me apagar
                  G
Disfarço minha tristeza
Com meus amigos na mesa
                     C
Na mesa de qualquer bar
C  G/B  Am   G
        Só ela
                     C
Me fez o homem mais feliz
C  G/B  Am   G
        Foi ela
                      C
A mulher que eu mais quis (3x)
  • 1
  • 2
  • 3
  • 4
  • 5
  • 6
  • 7
  • 8
  • 9
  • 10
  • 11
  • 12
    Acordes para:
      Composição: José FernandesColaboração e revisão:

      0 comentários

        mostrar mais comentários

        Conseguiu tocar?

        1tocaram0ainda não

        Grave um vídeo tocando Velha Carta e mande pra gente!

        00:00 / 00:00
        outros vídeos desta música
        repetirqualidadeautomática
        • automática
        Outro vídeos desta música
          00:00 / 00:00
          automática
          • automática
          Acordes para:violão e guitarra
          dificuldadeexibiçõescontribuições
          fecharplay/pause subir/descer velocidade
            acordes
            fechar
            OK
            Feedback