Cifra Club

Aprenda

A Horse With No Name

America

Tab de baixo: Principal
Tabbed By : Domi166
e-mail: 

Tuning: E A D G
 
				Intro / Fill
G|-----------------------------------------------------7--9-9-9-7------|
D|----------------------------------------------------------------9----|
A|---------------------------------------------------------------------|
E|---------------------------------------------------------------------|

				Verse/Chorus

G|---------------------------------------------------------------------|
D|--2---2--2--X--X---2--2--X---4--4--------------0---------------------|
A|-----------------------------------2----0----2-----------------------|
E|---------------------------------------------------------------------|

				/w Voice-melody 
G|---------------------------------------------------------|
D|----9-9-99-99-9--7--4-44-4---4-7---9-9-99-99-9--7--4-44-4| (optinal part. In the song plays
A|---------------------------------------------------------|  the bass the verse/chorus part)
E|---------------------------------------------------------|

"Ive been through the desert on a horse with no name
 It felt good to be out of the rain
 In the desert you can remember your name
 cause there aint no one for to give you no pain" 
Composição de Dewey Bunnell
5.563 exibições

0 comentários

Ver todos os comentários

Conseguiu tocar?

0 Tocaram 0 Ainda não

Grave um vídeo tocando A Horse With No Name e nos envie!

00:00 / 00:00
outros vídeos desta música
repetir qualidade Automático
Outros vídeos desta música
00:00 / 00:00
Automático

Cifra Club Pro

Aproveite o Cifra Club com benefícios exclusivos e sem anúncios
Cifra Club Pro
Aproveite o Cifra Club com benefícios exclusivos e sem anúncios
OK