Cifra Club

Best Day Of My Life

American Authors

Cifra: Principal (violão e guitarra)
tom: G
Ou Riff:

E|------------------------------------------|
B|------7------------------7-------10-7---7-|
G|----7---9-7-----7------7---9-7--------9---|
D|--7-----------9------7--------------------|
A|------------------------------------------|
E|------------------------------------------|

(Verso I)
   D
I had a dream so big and loud
I jumped so high I touched the clouds
 G
Wo-o-o-o-o-oh (wo-o-o-o-o-oh)
    D
I stretched my hands out to the sky
We danced with monsters through the night
 G
Wo-o-o-o-o-oh (wo-o-o-o-o-oh)

     Bm
I'm never gonna look back
      D9
Woah, never gonna give it up
    G                        (stop)
No, please don't wake me now (two, three, four)

D
Uh-u-u-u-uuh, uh
                                    G
This is gonna be the best day of my li-ife

My li-i-i-i-i-ife
D
Uh-u-u-u-uuh, uh
                                    G
This is gonna be the best day of my li-ife
     (stop)
My li-i-i-i-i-ife

*Solinho:

   D
   Uh-u-u-u-uuh, uh

E|-----------------------------------------------------|
B|--------3------------3------------3------------------|
G|--2--4----4----2--4------4---2--4-----4---2-4--------|
D|-----------------------------------------------2~~~--|
A|-----------------------------------------------------|
E|-----------------------------------------------------|

  G                         (stop)
  Uh-u-u-u-uuh, uh
E|------------------------------------------------------|
B|--------3------------3------------3-------------------|
G|--2--4----4----2--4------4---2--4-----4---2--4--------|
D|------------------------------------------------2~~~--|
A|------------------------------------------------------|
E|------------------------------------------------------|


Solos tocado junto ao Verso II:

    D

E|--10------12---10----12-----10------12---10----12--|
B|------10----------10------------10----------10-----|
G|-------------11------------------------11----------|

    G

E|----------10---------10-------------10----------10-|
B|--12------------12----------12------------12-------|
G|------12-----12----12-----------12-----12----12----|


(Verso II)
  D
I howled at the moon with friends

And then the sun came crashing in
 G
Wo-o-o-o-o-oh (wo-o-o-o-o-oh)

    D

A|--5--7--5---------------------| 2x
E|-----------7--5--7--5----7----|

   G

A|--5--7--9--7--5--7------------| 2x
E|--------------------7----5----|

    D
But all the possibilities

No limits just epiphanies
 G
Wo-o-o-o-o-oh (wo-o-o-o-o-oh)

    Bm
I'm never gonna look back
      D9
Woah, never gonna give it up
    G                     (stop)
No, just don't wake me now


D
Uh-u-u-u-uuh, uh
                                    G
This is gonna be the best day of my li-ife

My li-i-i-i-i-ife
D
Uh-u-u-u-uuh, uh
                                    G
This is gonna be the best day of my li-ife
     (stop)
My li-i-i-i-i-ife

*Solinho:

   D
   Uh-u-u-u-uuh, uh
E|-----------------------------------------------------|
B|-------3------------3--------------3-----------------|
G|--2--4----4---2--4------4---2--4------4--2---4-------|
D|------------------------------------------------2~~~-|
A|-----------------------------------------------------|
E|-----------------------------------------------------|

  G                         (stop)
  Uh-u-u-u-uuh, uh
E|-----------------------------------------------------|
B|--------3-----------3-------------3------------------|
G|--2--4----4---2--4------4---2--4----4---2--4-7-------|
D|------------------------------------------------2~~~-|
A|-----------------------------------------------------|
E|-----------------------------------------------------|

Ponte:

D
I hear it calling outside my window
I feel it in my soul (soul)
The stars were burning so bright
The sun was out 'til midnight
I say we lose control (control)

Riff (alternativo):

E|--------14-----------------------14--------17-14----14-|
B|-----15---17-15------15-------15---17-15---------17----|
G|--14--------------16-------14--------------------------|  2x
D|-------------------------------------------------------|
A|-------------------------------------------------------|
E|-------------------------------------------------------|

D
Uh-u-u-u-uuh, uh
                                     G
This is gonna be the best day of my li-ife

My li-i-i-i-i-ife
D
Uh-u-u-u-uuh, uh
                                     G
This is gonna be the best day of my li-ife
     (stop)
My li-i-i-i-i-ife

(Final + *Solinho)
D
This is gonna be, this is gonna be, this is gonna be
                    G
The best day of my life

Everything is looking up, everybody up now
D
Uh-u-u-u-uuh, uh
                                     G
This is gonna be the best day of my li-ife
                  (stop)
My li-i-i-i-i-ife
00:00 / 00:00
Outros vídeos desta música
Repetir
Outros vídeos desta música
Composição de Aaron Accetta / Dave Rublin / James A. Shelley / Matt Sanchez / Shep Goodman / Zac Barnett
Colaboração e revisão:
37.035 exibições
    • ½ Tom
    • A
    • Bb
    • B
    • C
    • Db
    • D
    • Eb
    • E
    • F
    • F#
    • G
    • Ab
  • Adicionar à lista

    0 comentários

    Ver todos os comentários

    Entre para oCifra Club PRO

    Tenha acesso a benefícios exclusivos no App e no Site

    • Chega de anúncios

    • Prioridade de compra em lançamentos

    • Mais recursos no app do Afinador

    • Atendimento Prioritário

    • Descontos nos produtos Cifra Club

    • Ajude a produzir mais conteúdo

    00:00 / 00:00

    Cifra Club Pro

    Aproveite o Cifra Club com benefícios exclusivos e sem anúncios
    Cifra Club Pro
    Aproveite o Cifra Club com benefícios exclusivos e sem anúncios
    OK