Cifra Club

Aprenda

Hearts On Parade

American Hi-Fi

Cifra: Principal (violão e guitarra)
tom: E
Tabbed by: Jamstein
Tuning: Standard

as much as their old style.  Regardless of how you feel about their music, you can't 
but love this song.  I am not much of a tabber, and this tab is probably very very wrong
in many places.  I am making this tab because I want other people, more experienced than
to fix this and work with it until someone has it completely down for everyone else to
read and learn to play.   This entire album is virtually untabbed and it all must be
tabbed soon.

Intro Chords:

e|-------------------------------|  (Play Each Chord 8 times)
B|----------------------------2--|
G|---------1-----------------2---|
D|---------2-----------------2---|
A|---------2---------------------|
E|-------------------------------|

Guitar 2 (during Intro)
e|-----------------------------------------------------------------------------|
B|------7--7--7--7--7--5--5--5-------------------------------------------------|
G|--------------------------------------6--6--6--6--6--4--4--4-----------------|
D|-----------------------------------------------------------------------------|
A|-----------------------------------------------------------------------------|
E|-----------------------------------------------------------------------------|

Verse:
    I don't understand....
e|--------------------------------|  (Again,
B|--------------------------------|  Play Each Chord 8 times)
G|------9-------------------------|
D|------9-------7------9------4---|
A|------7-------7------9------4---|
E|---------------5------7------2--|

I keep on holdin on...
e|--------------------------------|  (Again,
B|--------------------------------|  Play Each Chord 8 times)
G|------9-------------------------|
D|------9-------6------9------4---|
A|------7-------6------9------4---|
E|---------------4------7------2--|
Pre-Chorus

Nobody Told Me...
e|-------------------------------               ------------------------------------------------|
B|-------------------------------    
Composição de American Hi-Fi / Stacy Jones
611 exibições
    • ½ Tom
    • A
    • Bb
    • B
    • C
    • Db
    • D
    • Eb
    • E
    • F
    • F#
    • G
    • Ab
  • Adicionar à lista

    0 comentários

    Ver todos os comentários

    Conseguiu tocar?

    0 Tocaram 0 Ainda não

    Grave um vídeo tocando Hearts On Parade e nos envie!

    00:00 / 00:00
    Outros vídeos desta música
    Repetir Qualidade Automático
    Outros vídeos desta música
    00:00 / 00:00
    Automático

    Cifra Club Pro

    Aproveite o Cifra Club com benefícios exclusivos e sem anúncios
    Cifra Club Pro
    Aproveite o Cifra Club com benefícios exclusivos e sem anúncios
    OK