Cifra Club

Aprenda

Exile Of The Sons Uisliu

Amorphis

Cifra: Principal (violão e guitarra)
tom: G
guitar 1 
|-------------------|-------------------------------------------------------------|
|-------------------|-------------------------------------------------------------|
|-------------------|-------------------------------------------------------------|
|-------------------|-------------------------------------------------------------|
|-5-----------------|-------7-----7------7-----7---- 7----7----------7---------7--|
|-3-----------------|-5555---5555---7777--7777--8888--8888--10101010--10101010----|

guitar 1
|-------------------------------|------------------------------------|
|-------------------------------|------------------------------------|
|---9---9---9---9---9---9-------|---9---9---9---9---9---9------------|
|-7---7---7---9---9---9---------|-10--10--10--12--12--12-------------|
|-------------------------------|------------------------------------|
|-------------------------------|------------------------------------|

guitar 2
|-----------------------------------------------|
|-----------------------------------------------|
|-----------------------------------------------|
|-----------------------------------------------|
|-7-------------9-----------10-------------12---|
|-5-------------7------------8-------------10---|

guitar 1
|--------------------------------|--------------------------------|
|--------------------------------|--------------------------------|
|--------------------------------|--------------------------------|
|----------2-0-------------------|----------2-0-------------------|
|--3p2p0-0-----0-3p2p0-0-2-------|--3p2p0-0-----0-3p2p0-----------|
|---------------------------3----|-----------------------3-5-3-5--|

guitar 2
|-----------------|---------------|-----------|
|-----------------|---------------|-----------|
|-----------------|---------------|-----------|
|--2--------------|--------2------|-----------|
|--0--------------|--5-----0------|--5--7-----|
|-----------------|--3------------|--3--5-----|

guitar 1
|------------------------------------|
|------------------------------------|
|------------------------------------|
|------------------------------------|
|----------5-3-----------------------|
|-6p5p3-3------3-6p5p3p-1-3----------|

|--------------------------------|-------------|-----------|------------|
|--------------------------------|-------------|-----------|------------|
|--------------------------------|-------------|-----------|------------|
|--------------------------------|-------------|-----------|------------|
|----------5-3-------------------|-5-----------|-3-----5---|-3-5--------|
|-6p5p3-3-------3-6p5p3-1-3-1-3- |-3-----------|-1-----3---|-1-3--------|

guitar 1 & 2
|-------------------------|------------------------------|
|-------------------------|------------------------------|
|-------------------------|------------------------------|
|-------------------------|------------------------------| 
|-2-----------------------|-2----------------------4---5-|
|-0--------------12\\slide-|-0-0000-00-0000-00-0000-2---3-|

|---------------------------------------|----------------------------------------------|
|---------------------------------------|----------------------------------------------|
|---------------------------------------|----------------------------------------------|
|---------------------------------------|----------------------------------------------|
|-7-9-10-9-12-10-9-7--------------------|-7-9-10-9-12-10h12p10-9-7---------------------|
|--------------------8-10-12-10-8-10-7--|----------------------------8-10-12-10-8-10-7-|

guitar 1 
|---------------------------------------------------|
|---------------------------------------------------|
|---------------------------------------------------|
|---------------------------------------------------|
|-10-12-14-12-15-14h15p14-12-10-10-12-14-12-10-12-9-|
|---------------------------------------------------|

guitar 2 
|----------------------------------------------------|
|----------------------------------------------------|
|----------------------------------------------------|
|-7-9-10-9-12-10h12p10-9-7---------------------------|
|----------------------------------------------------|

guitar 
|---------------------------------------------------|
|---------------------------------------------------|
|---------------------------------------------------|
|-10-12-14-12-15-14h15p14-12-10-10-12-14-12-10-12-9-|
|---------------------------------------------------|
|---------------------------------------------------|

guitar 1
|-----------------------------------------------------------------|
|-----------------------------------------------------------------|
|-----------12-------12-------12------------12-------12--------12-|
|-10101010-----1010------1010-----12121212------1212-----1212-----|
|-----------------------------------------------------------------|
|-----------------------------------------------------------------|

|--------------------------------|---------------------------------|-----|
|--------------------------------|---------------------------------|-----|
|-----------12------12-------12--|------------12------12-------12--|-----|
|-13131313-----1313-----1313-----|--15151515-----1515-----1515-----|--10-|
|--------------------------------|---------------------------------|-----|
|--------------------------------|---------------------------------|-----|

|---------------------------------------------------|-----------|
|---------------------------------------------------|-----------|
|---------------------------------------------------|-----------|
|--5-----------7------------8--------------10-------|-------5---|
|--3-----------5------------6---------------8-------|-------3---|
|---------------------------------------------------|-----------|
Composição de Esa Holopainen
Colaboração e revisão:
  • Junior Jr
795 exibições
    • ½ Tom
    • A
    • Bb
    • B
    • C
    • Db
    • D
    • Eb
    • E
    • F
    • F#
    • G
    • Ab
  • Adicionar à lista

    0 comentários

    Ver todos os comentários

    Conseguiu tocar?

    0 Tocaram 0 Ainda não

    Grave um vídeo tocando Exile Of The Sons Uisliu e nos envie!

    00:00 / 00:00
    Outros vídeos desta música
    Repetir Qualidade Automático
    Outros vídeos desta música
    00:00 / 00:00
    Automático

    Cifra Club Pro

    Aproveite o Cifra Club com benefícios exclusivos e sem anúncios
    Cifra Club Pro
    Aproveite o Cifra Club com benefícios exclusivos e sem anúncios
    OK