Cifra Club

Back To Black

Amy Winehouse

Tab de baixo: Principal
exibições 10.451
Tuning: standard

G|--------------------------------------------------------------------------|
D|--------------------------------------------------------------------------|
A|---5-5---5-5-3--------------1-1--1-----------------3-(4)------------------|
E|----------------3-3---3-3-4--------(1)-6-5-5---5-5------------------------|

Sometimes this lick is being played at the end:
G|---------------------------------------------------------------------------|
D|---------------------------------------------------------------------------|
A|---------------------------------------------------------------------------|
E|---5--3--1--0--------------------------------------------------------------|

Bridge (black......black.....black)
G|--------------------------------------------------------------------------|
D|--------------------------------------------------------------------------|
A|--5-5---5-5----------------8-8---8-8--------------------------------------|
E|-------------6-6---6-6------------------5-5---5-5-------------------------|

2nd time play:
G|----------------------------------------:----------:-----------------------|
D|----------------------------------------:----------:-----------------------|
A|--5-5---5-5-------------------8-8---8-8-:----------:-----------------------|
E|-------------6-6---6-6-8-9-10-----------:5-5---5-5-:-----------------------|
Composição: Amy Winehouse / Mark RonsonColaboração e revisão:
  • Élison Duarte

0 comentários

    mostrar mais comentários

    Conseguiu tocar?

    3tocaram0ainda não

    Grave um vídeo tocando Back To Black e mande pra gente!

    00:00 / 00:00
    outros vídeos desta música
    repetirqualidadeautomática
    Outro vídeos desta música
      00:00 / 00:00
      automática
      OK