Cifra Club

Mais de Nós

Ana Gabriela

Cifra: Principal (violão e guitarra)
tom: A
[Refrão]

Parte 1 de 4
                 A7M    Am6
E|-------------------x------x---------------|
B|-----------------5-x---5--x-5-------------|
G|-----------------6-x---5--x-5-------------|
D|------------2----6-x---4--x-4-------------|
A|----------2--------x------x---------------|
E|-0--2--4-------5---x---5--x-5-------------|

Parte 2 de 4
   G#m7   Gm6          F#m7   B7(9)
E|------x--------x----------x--------x------|
B|---4--x-3--3---x-3-----2--x-2--2---x-2----|
G|---4--x-3--3---x-3-----2--x-2--2---x-2----|
D|---4--x-2--2---x-2-----2--x-1--1---x-1----|
A|------x--------x----------x-2----2-x-2----|
E|-4----x-3----3-x-3---2----x--------x------|

Parte 3 de 4
                 A7M   Am6
E|-------------------x--------x-------------|
B|-----------------5-x-5--5---x-5-----------|
G|-----------------6-x-5--5---x-5-----------|
D|------------2----6-x-4--4---x-4-----------|
A|----------2--------x--------x-------------|
E|-0--2--4-------5---x-5----5-x-5-----------|
                                             
Parte 2 de 4
   G#m7   Gm6          F#m7   B7(9)
E|------x--------x----------x--------x------|
B|---4--x-3--3---x-3-----2--x-2--2---x-2----|
G|---4--x-3--3---x-3-----2--x-2--2---x-2----|
D|---4--x-2--2---x-2-----2--x-1--1---x-1----|
A|------x--------x----------x-2----2-x-2----|
E|-4----x-3----3-x-3---2----x--------x------|

Parte 4 de 4
   E9
E|-0--0--0--0--0-----------x--x-------------|
B|-0--0--0--0--0-----------x--x-------------|
G|-1--1--1--1--1-----------x--x-------------|
D|-4--4--4--4--4----x--x---x--x--x----------|
A|-2--2--2--2--2----x--x---x--x--x----------|
E|-0--0--0--0--0----x--x---x--x--x----------|
   ↓  ↓  ↓  ↓  ↓    ↓  ↑   ↓  ↑  ↓

A7M          Am6
    Volta e vem dizer
  G#m7            Gm6
Que se arrependeu e quer mais
    F#m7          B7(9)
Um pouco mais de nós
                         (frase)
Vem e volta a ser o meu cais
A7M          Am6
    Volta e vem dizer
  G#m7           Gm6
Que parou um pouco pra pensar
F#m7        B7(9)              E9
E pensando bem, seria bom recomeçar

[Primeira Parte]

Parte 1 de 3
   A7M    Am6          G#m7   Gm6  
E|------x--------x----------x--------x------|
B|-5-5--x-5--5---x-5-----4--x-3--3---x-3----|
G|-6-6--x-5--5---x-5-----4--x-3--3---x-3----|
D|-6-6--x-4--4---x-4-----4--x-2--2---x-2----|
A|------x--------x----------x--------x------|
E|-5----x-5----5-x-5---4----x-3----3-x-3----|

Parte 2 de 3
   F#m7   B7(9)
E|------x--------x--------------------------|
B|---2--x-2--2---x-2------------------------|
G|---2--x-2--2---x-2------------------------|
D|---2--x-1--1---x-1---------------2--------|
A|------x-2----2-x-2-------------2----------|
E|-2----x--------x-----0--2--4--------------|

Parte 3 de 3
   A7M    Am6          G#m7   Gm6  
E|------x--------x----------x--------x------|
B|---5--x-5--5---x-5-----4--x-3--3---x-3----|
G|---6--x-5--5---x-5-----4--x-3--3---x-3----|
D|---6--x-4--4---x-4-----4--x-2--2---x-2----|
A|------x--------x----------x--------x------|
E|-5----x-5----5-x-5---4----x-3----3-x-3----|

Parte 2 de 3
   F#m7   B7(9)
E|------x--------x--------------------------|
B|---2--x-2--2---x-2------------------------|
G|---2--x-2--2---x-2------------------------|
D|---2--x-1--1---x-1---------------2--------|
A|------x-2----2-x-2-------------2----------|
E|-2----x--------x-----0--2--4--------------|

Parte 3 de 3
   A7M    Am6          G#m7   Gm6  
E|------x--------x----------x--------x------|
B|---5--x-5--5---x-5-----4--x-3--3---x-3----|
G|---6--x-5--5---x-5-----4--x-3--3---x-3----|
D|---6--x-4--4---x-4-----4--x-2--2---x-2----|
A|------x--------x----------x--------x------|
E|-5----x-5----5-x-5---4----x-3----3-x-3----|

Parte 2 de 3
   F#m7   B7(9)
E|------x--------x--------------------------|
B|---2--x-2--2---x-2------------------------|
G|---2--x-2--2---x-2------------------------|
D|---2--x-1--1---x-1---------------2--------|
A|------x-2----2-x-2-------------2----------|
E|-2----x--------x-----0--2--4--------------|

               A7M
Então eu digo: Oi
      Am6
Tudo bem? Como se chama?
          G#m7
Ah, eu podia tá melhor 
    Gm6
Se tivesse na sua cama
            F#m7
Então, vem cá
          B7(9)
O que cê gosta de fazer?
     (frase) 
Eu cozinho, canto e toco

Melhor se for com você
       A7M            Am6
Então vem, vem, vem, vem, vem
           G#m7          Gm6
Eu não queria te chamar de novo
         F#m7     B7(9)
Cê já devia tá aqui 

Pra eu poder te mostrar
          (frase)
Que eu conheço cada uma das curvas do 
        A7M
seu corpo
 Am6           G#m7      Gm6
Sim, eu te conheço como ninguém
           F#m7
Você se esconde atrás da marra
      B7(9)
Às vezes faz cara de brava 
    (frase) 
E depois fica tudo bem

[Segunda Parte]

Parte 1 de 4
   A7M    Am6          G#m7     
E|------x------x--------------x-------------|
B|-5--x-x-5----x-x-----4------x---x---------|
G|-6--x-x-5----x-x-----4------x---x---------|
D|-6--x-x-4----x-x-----4------x---x---------|
A|------x------x--------------x-------------|
E|-5----x-5----x-------4------x-------------|

Parte 2 de 4
   F#m7   B7(9)
E|------x--------x--------------------------|
B|-2--x-x-2--2---x-2------------------------|
G|-2--x-x-2--2---x-2------------------------|
D|-2--x-x-1--1---x-1---------------2--------|
A|------x-2----2-x-2-------------2----------|
E|-2----x--------x-----0--2--4--------------|

Parte 3 de 4
   A7M    Am6          G#m7   Gm6  
E|------x-------------------x--------x------|
B|---5--x-5--------------4--x-3------x-3----|
G|---6--x-5--------------4--x-3------x-3----|
D|---6--x-4--------------4--x-2------x-2----|
A|------x-------------------x--------x------|
E|-5----x-5------------4----x-3------x-3----|

Parte 4 de 4
   F#m7   B7(9)
E|------------------------------------------|
B|-----2------2-----------------------------|
G|-----2------2-----------------------------|
D|---2------1----------------------2--------|
A|--------2----------------------2----------|
E|-2-------------------0--2--4--------------|

    A7M        Am6
Cê gosta de pedir o meu carinho
         G#m7
E se eu paro de fazer

Cê me pede mais um pouquinho
        F#m7            B7(9)
Eu não sei te dizer não             

Não consigo negar
         (frase)
Então me diz qual é moral 

Da gente não aproveitar
 A7M               Am6
Tudo o que a vida tem pra oferecer?
   G#m7             Gm6
O meu sorriso fica muito mais bonito 
           F#m7  B7(9)  (frase)
Quando é pra    vo______cê

[Refrão Final]

Parte 1 de 7
   A7M    Am6          G#m7   Gm6  
E|------x--------x----------x--------x------|
B|---5--x-5------x-5-----4--x-3--3---x-3----|
G|---6--x-5------x-5-----4--x-3--3---x-3----|
D|---6--x-4------x-4-----4--x-2--2---x-2----|
A|------x--------x----------x--------x------|
E|-5----x-5------x-5---4----x-3----3-x-3----|

Parte 2 de 7
   F#m7   B7(9)
E|------x--------x--------------------------|
B|---2--x-2--2---x-2------------------------|
G|---2--x-2--2---x-2------------------------|
D|---2--x-1--1---x-1---------------2--------|
A|------x-2----2-x-2-------------2----------|
E|-2----x--------x-----0--2--4--------------|

Parte 3 de 7
   A7M    Am6          G#m7   Gm6  
E|------x--------x----------x--------x------|
B|---5--x-5--5---x-5-----4--x-3--3---x-3----|
G|---6--x-5--5---x-5-----4--x-3--3---x-3----|
D|---6--x-4--4---x-4-----4--x-2--2---x-2----|
A|------x--------x----------x--------x------|
E|-5----x-5----5-x-5---4----x-3----3-x-3----|

Parte 4 de 7
   F#m7   B7(9)       E(9)
E|------x--------x----0-0-0-0-0------x--x-x-|
B|---2--x-2--2---x-2--0-0-0-0-0------x--x-x-|
G|---2--x-2--2---x-2--1-1-1-1-1------x--x-x-|
D|---2--x-1--1---x-1--4-4-4-4-4-x-x--x--x-x-|
A|------x-2----2-x-2--2-2-2-2-2-x-x--x--x-x-|
E|-2----x--------x----0-0-0-0-0-x-x--x--x-x-|
                      ↓ ↓ ↓ ↓ ↓  ↓ ↑  ↓  ↑  ↓

Parte 5 de 7
   A7M    Am6          G#m7   Gm6  
E|------x--------x----------x--------x------|
B|-5-5--x-5--5---x-5-----4--x-3--3---x-3----|
G|-6-6--x-5--5---x-5-----4--x-3--3---x-3----|
D|-6-6--x-4--4---x-4-----4--x-2--2---x-2----|
A|------x--------x----------x--------x------|
E|-5----x-5----5-x-5---4----x-3----3-x-3----|

Parte 6 de 7
   F#m7   B7(9)
E|------x--------x--------------------------|
B|---2--x-2--2---x-2------------------------|
G|---2--x-2--2---x-2------------------------|
D|---2--x-1--1---x-1---------------2--------|
A|------x-2----2-x-2-------------2----------|
E|-2----x--------x-----0--2--4--------------|

Parte 7 de 7
   A7M    Am6        G#m7  Gm6 F#m  B7(9) E9
E|------x--------x-------x----------------0-|
B|---5--x-5--5---x-5---4-x--3-------2-----0-|
G|---6--x-5--5---x-5---4-x--3-----2-2-----1-|
D|---6--x-4--4---x-4---4-x--2-----2-1-----4-|
A|------x--------x-------x------2---2-----2-|
E|-5----x-5----5-x-5-4---x--3-2-----------0-|
                                          ↓

A7M          Am6
    Volta e vem dizer
  G#m7            Gm6
Que se arrependeu e quer mais
    F#m7          B7(9)
Um pouco mais de nós
                         (frase)
Vem e volta a ser o meu cais
A7M          Am6
    Volta e vem dizer
  G#m7           Gm6
Que parou um pouco pra pensar
F#m7        B7(9)              E9
E pensando bem, seria bom recomeçar
 
Então eu digo
A7M          Am6
    Volta e vem dizer
  G#m7            Gm6
Que se arrependeu e quer mais
    F#m7          B7(9)
Um pouco mais de nós
                (frase)
Vem e volta ser         volta 
               A7M   Am6
Volta e vem dize_____er
    G#m7             Gm6
Que é loucura não ficar perto
   F#m7                 B7(9)
Abre teu coração, que pra você o meu 
          E9
Tá aberto
00:00 / 00:00
Outros vídeos desta música
Repetir
Outros vídeos desta música
Composição de Luana Berti
Colaboração e revisão:
  • Getúlio Vasconcelos
5.483 exibições
    • ½ Tom
    • A
    • Bb
    • B
    • C
    • Db
    • D
    • Eb
    • E
    • F
    • F#
    • G
    • Ab
  • Adicionar à lista

    0 comentários

    Ver todos os comentários

    Conseguiu tocar?

    1 Tocaram 1 Ainda não

    Grave um vídeo tocando Mais de Nós e nos envie!

    Entre para oCifra Club PRO

    Tenha acesso a benefícios exclusivos no App e no Site

    • Chega de anúncios

    • Prioridade de compra em lançamentos

    • Mais recursos no app do Afinador

    • Atendimento Prioritário

    • Descontos nos produtos Cifra Club

    • Ajude a produzir mais conteúdo

    00:00 / 00:00
    Capítulos
    • Tocando a Música
    • Apresentação / Equipamentos
    • Dicas da música
    • Acordes
    • Tocando Refrão
    • Tocando Dedilhado do Refrão
    • Dedilhado do Refrão - Parte 1
    • Dedilhado do Refrão - Parte 2
    • Dedilhado do Refrão - Parte 3
    • Dedilhado do Refrão - Parte 4
    • Tocando Primeira Parte
    • Tocando Primeira Parte Lento
    • Ensinando Primeira Parte - 1
    • Ensinando Primeira Parte - 2
    • Ensinando Primeira Parte - 3
    • Tocando Segunda Parte
    • Tocando Segunda Parte Lento
    • Ensinando Segunda Parte - Parte 1
    • Ensinando Segunda Parte - Parte 2
    • Ensinando Segunda Parte - Parte 3
    • Ensinando Segunda Parte - Parte 4
    • Tocando Refrão Final
    • Tocando Refrão Final Lento
    • Ensinando Refrão Final - Pate 1
    • Ensinando Refrão Final - Pate 2
    • Ensinando Refrão Final - Pate 3
    • Ensinando Refrão Final - Pate 4
    • Ensinando Refrão Final - Pate 5
    • Ensinando Refrão Final - Pate 6
    • Ensinando Refrão Final - Pate 7
    • Encerramento

    Cifra Club Pro

    Aproveite o Cifra Club com benefícios exclusivos e sem anúncios
    Cifra Club Pro
    Aproveite o Cifra Club com benefícios exclusivos e sem anúncios
    OK