Cifra Club

Me Ama

Ana Paula Valadão

Cifra: Principal
exibições 3.189
Tom: D
E|------9-----9-----9-9-9-9-9-9---------------|
B|----8--8--8--8--8---8-8-8-8-9---------------|
G|--9-----9-----9-----------------------------|
D|--------------------------------------------|
A|--------------------------------------------|
E|--------------------------------------------|

E|------9-----9-----9-9-9-9-9-9---------------|
B|----8--8--8--8--8---8-8-8-8-9---------------|
G|--7-----7-----7-----------------------------|
D|--------------------------------------------|
A|--------------------------------------------|
E|--------------------------------------------|

E|------12------12------12-12-12-12-12-12-----|
B|----12--12--12--12--12---12-12-12-12-12-----|
G|--9-------9-------9-------------------------|
D|--------------------------------------------|
A|--------------------------------------------|
E|--------------------------------------------|

E|------10------10------10-10-10-10-10-10-----|
B|----10--10--10--10--10---10-10-10-10-10-----|
G|--7-------7-------7-------------------------|
D|--------------------------------------------|
A|--------------------------------------------|
E|--------------------------------------------|

Solo:

E|--------------------------------------------|
B|--/10~~~--\9~\2~~/5~~-----------------------|
G|--------------------------------------------|
D|--------------------------------------------|
A|--------------------------------------------|(3x)
E|--------------------------------------------|

E|--------------------------------------------|
B|--/10~~~~~~~--------------------------------|
G|--------------------------------------------|
D|--------------------------------------------|
A|--------------------------------------------|
E|--------------------------------------------|
Acordes para:
    Colaboração e revisão:
    • luciana santana
    • Antonio Cezar

    0 comentários

      mostrar mais comentários

      Conseguiu tocar?

      0tocaram0ainda não

      Grave um vídeo tocando Me Ama e mande pra gente!

      00:00 / 00:00
      outros vídeos desta música
      repetirqualidadeautomática
      Outro vídeos desta música
        00:00 / 00:00
        automática
        OK