Cifra Club

Aprenda

Quando Deus Escolhe Alguém

Ana Paula Valadão

Cifra: Principal (violão e guitarra)
Tom: G
E|------------------|---------------------|--------------------|
B|------------------|---------------------|--------------------|
G|----------------0-|-2---2---------------|--------------------|
D|--------------4---|---4----4-0------2-4-|-2-0------------2-4-|
A|------------------|---------------------|-----2--------------|
E|------------------|---------------------|--------------------|

E|----------------------|------------------|---------------------|
B|----------------------|------------------|---------------------|
G|-0---0----2-----------|------------------|---------------------|
D|---4----4----0--0-2-4-|-2------------4-2-|-0---0--0-2--4---4-4-|
A|----------------------|------------------|---2-----------------|
E|----------------------|------------------|---------------------|

E|---------------------|--------------------|------------------|
B|--------0------------|----------------0---|------------------|
G|-0---0----2----------|-0----------0-2-----|----------------0-|
D|---2---------4---4-4-|---4-2--0-0-------2-|--------------4---|
A|---------------------|--------------------|------------------|
E|---------------------|--------------------|------------------|

E|---------------------|--------------------|---------------------|
B|---------------------|--------------------|---------------------|
G|-2---2---------------|--------------------|-0---0----2----------|
D|---4----4-0------2-4-|-2-0------------2-4-|---4----4----4---2-4-|
A|---------------------|-----2--------------|---------------------|
E|---------------------|--------------------|---------------------|

E|------------------|---------------------|-------------------|
B|------------------|---------------------|--------0----------|
G|------------------|---------------------|-0---0----2--------|
D|-2------------4-2-|-0---0--0-2--4---4-4-|---0---------4---4-|
A|------------------|---2-----------------|-------------------|
E|------------------|---------------------|-------------------|

E|----------------------|-------------------|----------------------|
B|----------------------|----------3-2----0-|-------------3-2----0-|
G|-0---0----0----0--2-2-|---------------2---|--------2-2-------2---|
D|---4----4----4--------|-------------------|--4-4-4---------------|
A|----------------------|-------------------|----------------------|
E|----------------------|-------------------|----------------------|

E|--------------------|-----------------------|-------------------|
B|--------------------|-----------------------|-----0----3-2----0-|
G|-------2-2----------|-0---0----2------------|-0-2---2-------2---|
D|--4-4-----------4-4-|---4----4----4---2-2-4-|-------------------|
A|--------------------|-----------------------|-------------------|
E|--------------------|-----------------------|-------------------|

E|---------------------|----------------------|--------------------|
B|------------3-2----0-|----------------------|--------------------|
G|-------2-2-------2---|-------2-2------------|-0---0----2---------|
D|--4-4----------------|--4-4-----------4-4-4-|---4----4----4-0--4-|
A|---------------------|----------------------|--------------------|
E|---------------------|----------------------|--------------------|

E|--------------------|--------------|--------------|
B|--------------------|--------------|--------------|
G|---------0----------|--------------|--------------|
D|-2----0----4------0-|--------------|--------------|
A|-------------7--4---|--------------|--------------|
E|--------------------|--------------|--------------|
Colaboração e revisão:
  • Helon Oliveira
4.114 exibições
    • ½ Tom
    • A
    • Bb
    • B
    • C
    • Db
    • D
    • Eb
    • E
    • F
    • F#
    • G
    • Ab
  • Adicionar à lista

    0 comentários

    Mostrar mais comentários
    00:00 / 00:00
    outros vídeos desta música
    repetir qualidade Automático
    Outros vídeos desta música
    00:00 / 00:00
    Automático

    Cifra Club Pro

    Aproveite o Cifra Club com benefícios exclusivos e sem anúncios
    7 dias grátis
    Cifra Club Pro
    Aproveite o Cifra Club com benefícios exclusivos e sem anúncios
    7 dias grátis
    OK