Notificações Amigos pendentes

      Anastacia

      Left Outside Alone

      2.558 exibições
      Tabbed by: Crash
      
      Tuning: Standard: G D A E
      
       Intro:  
      
         B                     C                        D
      G|-------------------------------------------------------------------|
      D|-------------------------------------------------------------------|
      A|-2---------------------3------------------------5------------------|
      E|-------------------------------------------------------------------|
         All my love I've been waiting for you to bring a fairy tale my way
      
                          B             C                   A                  D
      G|--------------------------------------------------------------------------|
      D|--------------------------------------------------------------------------|
      A|------------------2-------------3--------------------------------------5--|
      E|----------------------------------------------------5---------------------|
         Been living in a fanasy without meaning, it's not okay, I don't feel safe
      
      
      Now for each note, keep plucking it until you get to the next, and do the same and so on...
      
         G                     B    A       D
      G|------------------------------------------------------|
      D|------------------------------------------------------|
      A|-----------------------2------------5-----------------|
      E|-3--------------------------5-------------------------|
                 I don't feel safe...ooooh
      
       Verse:
      
         D
      G|------------------------------------------------------|
      D|------------------------------------------------------|
      A|-5----------------------------------------------------|
      E|------------------------------------------------------|
          Left broken in despair, wanna breath can't find air
      
         G                                                               B
      G|--------------------------------------------------------------------|
      D|--------------------------------------------------------------------|
      A|-----------------------------------------------------------------2--|
      E|-3------------------------------------------------------------------|
          Thought you were sent from up above, but you and me never had love
      
                                A                   D
      G|-------------------------------------------------------|
      D|-------------------------------------------------------|
      A|--------------------------------------------5----------|
      E|------------------------5------------------------------|
         So much more I had to say, help me find a way
      
       Chorus: 1st half
      
                              B                   C
      G|---------------------------------------------------|
      D|---------------------------------------------------|
      A|----------------------2-------------------3--------|
      E|---------------------------------------------------|
         And I wonder if you know, how it really feels
      
                              D
      G|---------------------------------------------------|
      D|---------------------------------------------------|
      A|----------------------5----------------------------|
      E|---------------------------------------------------|
         To be left outside alone, when it's cold out here
      
                                B                 C
      G|---------------------------------------------------|
      D|---------------------------------------------------|
      A|------------------------2-----------------3--------|
      E|---------------------------------------------------|
         Well maybe you should know, just how it feels
      
                       A
      G|---------------------------------------------------|
      D|---------------------------------------------------|
      A|---------------------------------------------------|
      E|---------------5-----------------------------------|
         To be left outside alone, to be left outside alone
      
       Chorus: 2nd half - same as intro but don't play G on the last line
                          same lyrics as well!
      
       Verse 2:
      
         D                                                         G
      G|--------------------------------------------------------------|
      D|--------------------------------------------------------------|
      A|-5------------------------------------------------------------|
      E|-----------------------------------------------------------3--|
          Why do you play me like a game, always someone else to blame
          
                                                                 B
      G|--------------------------------------------------------------|
      D|--------------------------------------------------------------|
      A|---------------------------------------------------------2----|
      E|--------------------------------------------------------------|
         Careless, helpless little man, someday you might understand
      
                                   A                          D
      G|--------------------------------------------------------------|
      D|--------------------------------------------------------------|
      A|------------------------------------------------------5-------|
      E|---------------------------5----------------------------------|
         There's not much more to say, but I hope you find a way
      
       Bridge:
      
         G                                B                               A
      G|------------------------------------------------------------------------|
      D|------------------------------------------------------------------------|
      A|----------------------------------2-------------------------------------|
      E|-3----------------------------------------------------------------5-----|
          Ooooh heavenly father, heavenly father, please save me, please save me  
      
         D
      G|-----------------------------------|
      D|-----------------------------------|
      A|-5---------------------------------|
      E|-----------------------------------|
          Ooooooooooooooooooooooh!!! 
      
      
      | /  slide up      Order: Intro, Verse, Chorus, Verse 2, Chorus 2, 
      | \  slide down           Bridge, Chorus 3 
      | h  hammer-on
      | p  pull-off      So there you go.  If you want chords for this song, look
      | +  harmonic      as well as the the tabs.  You can print it if you want, 
      | x  Mute note     so don't bother emailing me and enjoy!
      
      ===============================================================================

      Comentários 0

      140 .
      140 cancelar

      conseguiu tocar?

      covers

      Grave um vídeo tocando Left Outside Alone e mande pra gente!

      Ex.: http://www.youtube.com/watch?v=0IvSvIwGdwk
      ver covers de outras músicas »
      0:00 / 0:00

      Capítulos

        2 versões de baixo exibições contribuição e correção
        1 versão de Guitar Proformatodownloadscontribuição
        play/pausefechar subir/descer velocidade
        6ª corda E5ª corda A4ª corda D3ª corda G2ª corda B1ª corda E
          acordes
          publicidade
          fechar
          ok