Cifra Club

Lisboa (part. Lenine)

Anavitória

Cifra: Simplificada-aula (violão e guitarra)
tom: A
[Intro 2x]  Bm7  F#m  A7M  E


[Dedilhado Introdução e Primeira Parte]

[Parte 01 De 02]

   Bm7           F#m
E|------------------------------------------|
B|-----3-----3--------2-----2---------------|
G|-----2-----2--------2-----2---------------|
D|---4-----4--------4-----4-----------------|
A|-2-----2----------------------------------|
E|----------------2-----2-------------------|

[Parte 02 De 02]

   A7M            E
E|------------------------------------------|
B|-----2-----2--------0-----0---------------|
G|-----1-----1--------1-----1---------------|
D|---2-----2--------2-----2-----------------|
A|-0-----0----------------------------------|
E|----------------0-----0-------------------|


[Primeira Parte]

             Bm7
Eu vejo tua cara
                 F#m
O teu querer perverso
              A7M                   E
A gente fica bem aqui no chão da sala

                Bm7
Eu te queria a vida toda
       F#m
Te confesso

Por mim, a gente 
 A7M                    E
Nem precisa mais da estrada

              Bm7
Eu vejo você longe
              F#m
E quero você perto
               A7M
Fica na minha sombra
                      E
Eu posso ser teu rastro

                 Bm7
Não quero tu na linha
                 F#m
Vivo, morto ou claro
                A7M
Eu quero tu na minha boca
   E
A minha boca

[Segunda Parte]

        D7M  E  
Quer você
        F#m  B7
Quer você
          D7M       E
Diga pra mim que é real
              F#m         B7   
Que eu te prometo meu melhor
          D7M                  E
Fala pra mim o que eu quero ouvir
           F#m             B7
Que tu sentiu o que eu senti


[Dedilhado Segunda Parte]

[Parte 01 De 04]

   D7M            E
E|-----2-----2------------------------------|
B|-----2-----2--------0-----0---------------|
G|---2-----2----------1-----1---------------|
D|-0-----0----------2-----2-----------------|
A|------------------------------------------|
E|----------------0-----0-------------------|

[Parte 02 De 02]

   F#m             B7
E|------------------------------------------|
B|------2-----2--------4-----4--------------|
G|------2-----2--------2-----2--------------|
D|----4-----4--------4-----4----------------|
A|-----------------2-----2------------------|
E|-2------2---------------------------------|


[Primeira Parte]

             Bm7
Eu vejo tua cara
                 F#m
O teu querer perverso
              A7M                   E
A gente fica bem aqui no chão da sala

                Bm7
Eu te queria a vida toda
       F#m
Te confesso

Por mim, a gente 
 A7M                    E
Nem precisa mais da estrada

              Bm7
Eu vejo você longe
              F#m
E quero você perto
               A7M
Fica na minha sombra
                      E
Eu posso ser teu rastro

                 Bm7
Não quero tu na linha
                 F#m
Vivo, morto ou claro
                A7M
Eu quero tu na minha boca
   E
A minha boca

[Segunda Parte]

        D7M  E  
Quer você
        F#m  B7
Quer você
          D7M        E
Diga pra mim que é real
              F#m         B7     
Que eu te prometo meu melhor
          D7M                  E
Fala pra mim o que eu quero ouvir
           F#m             B7
Que tu sentiu o que eu senti

          D7M        E
Me diga agora por favor
               F#m          B7
Que eu vou correndo te abraçar
          D7M            E
Te quero tanto, é quase dor
         F#m               B7
É com você que eu quero estar

[Terceira Parte]

    D7M
Se for por mim
     C#7
Vai ser assim
   F#m        B7
É só você querer

[Final]

              Bm7      F#m
Pra gente, enfim, se amar
     A7M               E
Pra gente, enfim, se amar
     Bm7               F#m
Pra gente, enfim, se amar
     A7M               E
Pra gente, enfim, se amar


(Bm7  F#m  A7M  E) 2x
00:00 / 00:00
Outros vídeos desta música
Repetir
Outros vídeos desta música
Composição de Ana Caetano / Paulo Novaes
Colaboração e revisão:
  • Leandro Sandim
228 exibições
  • Simplificar cifra
    • ½ Tom
    • A
    • Bb
    • B
    • C
    • Db
    • D
    • Eb
    • E
    • F
    • F#
    • G
    • Ab
  • Adicionar à lista

    0 comentários

    Ver todos os comentários

    Conseguiu tocar?

    0 Tocaram 0 Ainda não

    Grave um vídeo tocando Lisboa (part. Lenine) e nos envie!

    Entre para oCifra Club PRO

    Tenha acesso a benefícios exclusivos no App e no Site

    • Chega de anúncios

    • Prioridade de compra em lançamentos

    • Mais recursos no app do Afinador

    • Atendimento Prioritário

    • Descontos nos produtos Cifra Club

    • Ajude a produzir mais conteúdo

    00:00 / 00:00

    Cifra Club Pro

    Aproveite o Cifra Club com benefícios exclusivos e sem anúncios
    Cifra Club Pro
    Aproveite o Cifra Club com benefícios exclusivos e sem anúncios
    OK