Tua

Anavitória

Composição de: Ana Caetano
tom: Bb (forma dos acordes no tom de G ) Capotraste na 3ª casa
[Intro] G  C9  G  C9

G                    C9
Teu jeito rima com o meu
G                    D9
O tom albino da tua pele me contrasta
Em                   C9
Meu toque até te escolheu
               G
Pra te fazer casa
G                        C9
Meu bem, tu tem minha saudade
         G            D9
Minha verdade, meu querer

Então se deixa ser
Em
  Mais de mim e ter
C9                   G         D9
  Mais de mim que já é, que já tem

                 C9
Eu não me importaria
       D9                   G
De dividir um colchão com você
          Em                   C9
Dar meu cabelo pra de nós tu encher
        D9                  Em
E me afogar no teu corpo metido a travesseiro
            C9        D9        G G5/F#
Não contestaria um pedido de carinho teu
  Em               C9          D9
Café mais amargo, tua toalha jogada no quarto
        Em
Nenhum traço do que é teu

G                    C9
Meu jeito rima com o teu
G                      D9
O tom de noite na tua pele me contrasta
Em                    C9
Teu toque até me aprendeu
                 G
Em ti fiz minha casa
G                        C9
Meu bem tu tem minha saudade
          G               D9
Minha verdade, minhas canções

Então me deixa ser
Em
  Mais de ti e ter
C9                   G
  Mais de ti que já sou
       D9
Que me deu

                 C9
Eu não me importaria
       D9                   G
De dividir um colchão com você
          Em                   C9
Dar meu cabelo pra de nós tu encher
        D9                  Em
E me afogar no teu corpo metido a travesseiro
            C9        D9         G (G5/F#)
Não contestaria um pedido de carinho teu
  Em               C9          D9
Café mais amargo, tua toalha jogada no quarto
        Em
Nenhum traço do que é teu

            G           
E|----------------------|
B|-----3---------3------|
G|---0---0-0---0--0-0---|
D|--0-0---0---0-0--0----|
A|----------------------|
E|-3---------3----------|

            C9
E|----------------------|
B|-----3---------3------|
G|---5---5-5---5--5-5---|
D|--5-5---5---5-5--5----|
A|----------------------|
E|-3---------3----------|

            Em
E|----------------------|
B|-----0---------0------|
G|---0---0-0---0--0-0---|
D|--2-2---2---2-2--2----|
A|----------------------|
E|-0---------0----------|

     D9
E|------0---------------|
B|----3-----------------|
G|---2-2----------------|
D|--0-------------------|
A|----------------------|
E|----------------------|
    G5/F#
E|----------------------|
B|----------------------|
G|-----0----------------|
D|---5------------------|
A|--5-5-----------------|
E|-2--------------------|
Página 1 / 1

Letras e título
Acordes e artista

resetar configurações
OK