Enviar cifraEntrar

Aliança de Sangue

Anderson Freire

Cifra: Principal
exibições 133.036
Tom: C
Intro: Bm  A  G  D/F#  Em  D/F#  G  A


E|---------5--9--10--9-------------------------|
B|----5-7---------------10-----------9h10---7--|
G|--7-----------------------7-----7------------|
D|-----------------------------9---------------|
A|---------------------------------------------|
E|---------------------------------------------|


E|---------------------------------------------|
B|---------------------------------------------|
G|-----6--7--9--7--6-------------9h11-9--------|
D|--9-----------------9--7h9-------------------|
A|---------------------------------------------|
E|---------------------------------------------|


E|---------------------------------------------|
B|---------------------------------------------|
G|----7---6------------------------------------|
D|--7---7------0-------------------------------|
A|-------------7~9-----------------------------|
E|---------------------------------------------|


D          D/F#                G         A      D
Somos um, o Teu sangue fez assim.    ooOoh! ooOoh!
           D/F#                  G          A
Teu amor é bem maior que tudo em mim.    oooOoh!
Bm           F#m   G         A4   A
Ao descer ao mundo sem a Sua Glória
Bm              F#m            G
Me abraçou tão forte o meu Jesus.
Bm              F#m      G            A
E ao voltar pro céu fez da nossa história
Em      D/F#         G
Aliança com preço de cruz,
Em          D/F#       G
Comunhão de graça e de luz.

Refrão:

D     D/F#      G
És o Rei da Glória
     A           D    D/F#   G
Teu Trono não Te separou de mim
     A#°           Bm    F#m     G
Teu sangue eternizou nossa história
  D/F#    Em   A       D
Nossa aliança não tem fim

C         C/E                F         G      C
Somos um, o Teu sangue fez assim.    ooOoh! ooOoh!
           C/E                    F          G
Teu amor é bem maior que tudo em mim.    oooOoh!
Am            Em    F          G
Ao descer ao mundo sem a Sua Glória
Am             Em             F     G4   G
Me abraçou tão forte o meu Jesus.
Am              Em      F           G
E ao voltar pro céu fez da nossa história
Dm       Em            F
Aliança com preço de cruz,
Dm            Em         F
Comunhão de graça e de luz.

Refrão:

C     Em      F
És o Rei da Glória
      G          C   C/E     F
Teu Trono não Te separou de mim
     G           Am     Em     F
Teu sangue eternizou nossa história
  Em     Dm    G       C4  C  C4  C
Nossa aliança não tem fim

Am     G/B     F     C
Nem a vida, nem a morte
Am     G/B   F     C
Nos separam, somos um
Am    G/B      F     C
Teu amor, pai, me consome
    Am       G
Sou Teu, Ès meu

C    Em       F
És o Rei da Glória
     G           C   C/E     F
Teu Trono não Te separou de mim
     G            Am    Em     F
Teu sangue eternizou nossa história
  Em     Dm    G
Nossa aliança...
C    Em       F
És o Rei da Glória
     G           C   C/E     F
Teu Trono não Te separou de mim
     G            Am   Em     F
Teu sangue eternizou nossa história
  Em     Dm
Nossa aliança...
     G           Am    Em     F
Teu sangue eternizou nossa história
  Em     Dm     G       C
Nossa aliança não tem fim
  • 1
  • 2
  • 3
  • 4
  • 5
  • 6
  • 7
  • 8
  • 9
  • 10
  • 11
  • 12

    0 comentários

      mostrar mais comentários

      Conseguiu tocar?

      19tocaram1ainda não

      Grave um vídeo tocando Aliança de Sangue e mande pra gente!

      00:00 / 00:00
      outros vídeos desta música
      repetirqualidadeautomática
      • automática
      Outro vídeos desta música
        00:00 / 00:00
        automática
        • automática
        Acordes para:violão e guitarra
        dificuldadeexibiçõescontribuições
        fecharplay/pause subir/descer velocidade
          acordes
          fechar
          OK
          Feedback