Cifra Club

Canção do Céu

Anderson Freire

Cifra: Cifra-01
exibições 31.714
Tom: C (com acordes na forma de D#) Afinação: Eb Ab Db Gb Bb Eb Capotraste na 10ª casa
Solo Intro:
(Primeira Parte)
E|-------3--------3-------|-----------------|
B|---------6--4-----6--4--|-4-3-------------|
G|- 3-5~--------5--------3|------5-3---3--5-|
D|-5----------------------|----------5------|
A|------------------------|-----------------|
E|------------------------|-----------------|

(Segunda Parte)
E|-------3-----------------------------------|
B|---------6--4--------4~3/1-----------------|
G|-- 3-5------------ 3------3-0p3h5~---------|
D|-5--------------5--------------------------|
A|-------------------------------------------|
E|-------------------------------------------|

(Repete Segunda Parte ; Até o 6º "5" da Casa G)

Eb               Bb/D              Cm7
Existe uma canção em cada um de nós
                   Ab                  Eb
foi Deus quem escreveu pra Ele mesmo ouvir
            Bb/D             Cm7
o inimigo quer tirar ela de mim
            Ab        Eb
mas serei fiel até o fim.

            Bb                 Cm7
Integrante sou do coral celestial
               Ab                    Eb
o meu maestro disse que eu sou especial
              Bb                     Cm7
Não vivo mais eu, quem vive em mim é Ele
           B7M          C#7M         Eb7M
estou ensaiando pra cantar no Céu pra ele

Refrão:
                      Bb
No coral eu quero cantar, declarar que Ele é santo, santo,
                  Cm7                                Ab
Infinitamente adorar, dizendo que Jesus é santo, santo,
                 Bb9                       Fm7
A composição do céu vai cantar quem for fiel,
   Ab        Eb
O hino da vitória será o meu troféu

                      Bb
No coral eu quero cantar, declarar que Ele é santo, santo,
                  Cm7                                Ab
Infinitamente adorar, dizendo que Jesus é santo, santo,
                 Bb9                       Fm7
A composição do céu vai cantar quem for fiel,
        Ab    Bb
Vou erguer o meu troféu

( Cm7  Ab  Eb )

Cm7
Adorado, exaltado, poderoso
Ab
magnificado, Jesus Cristo, glorioso
Fm
No grande dia esperado vou louvar
Gm       ( Ab  Bb )
santo é o Senhor.

Fim: Cm7  Ab  Eb  Bb  G  Bb  Cm7
Acordes para:

    0 comentários

      mostrar mais comentários

      Conseguiu tocar?

      5tocaram0ainda não

      Grave um vídeo tocando Canção do Céu e mande pra gente!

      00:00 / 00:00
      outros vídeos desta música
      repetirqualidadeautomática
      Outro vídeos desta música
        00:00 / 00:00
        automática
        OK