Cifra Club

Passaro Sem Ninho

André e Andrade

Cifra: Principal (violão e guitarra)
exibições 26.640
Tom: G
[Intro] G  D  C  D  G  G  D  C  G  D  G

E|-7---7-7-10-12--14-----14--14-15-14-12-----12--12--14--12-10----10--10-7-10-8---|
B|-8--8-8--12-13--15---15--15---17-15-13---13--13----15--13-12--12--12---8-12-10--|
G|-0-0------------14-14---------------12-12-----------------0--0--------------11-|
D|---------------------------------------------------------------------------------|
A|---------------------------------------------------------------------------------|
E|---------------------------------------------------------------------------------|

E|-7---7-7-10-12--14-----14--14-15-14-12-----12--12--14--12-10--7-7/12/8--8--8/10--|
B|-8--8-8--12-13--15---15--15---17-15-13---13--13----15--13-12--8-8/13/10-10-10/12-|
G|-0-0------------14-14---------------12-12-----------------0---------------------|
D|----------------------------------------------------------------------------------|
A|----------------------------------------------------------------------------------|
E|----------------------------------------------------------------------------------|

E|-12/10--8/7-----7-------------------------------------------|
B|-13/12--10/8----8-------------------------------------------|
G|------------7h9-0-------------------------------------------|
D|------------------------------------------------------------|
A|------------------------------------------------------------|
E|------------------------------------------------------------|

G              C      G
Meu bem se eu fosse você
             C           G
Me segurava mais em seus braços
                C       G
Não me deixava sair sozinho
       C        G               D
Igual ave sem ninho voando no espaço

Posso encontrar alguém La fora

E fazer tudo que você faz
                           C
Eu sou manso mais tenho instinto
           G         D        G
Eu posso voar não voltar nunca mais

[Solo] C  D  G

E|-7-10-12--14-12--10-12--10-8--7--10-8--7--5-3-2-------------|
B|-8-12-13--15-13--12-13--12-10-8--12-10-8--7-5-3-------------|
G|------------------------------------------------------------|
D|------------------------------------------------------------|
A|------------------------------------------------------------|
E|------------------------------------------------------------|

G      D               D
O passarinho quando acostuma
        C
Viver longe da sua gaiola
G                   G
E que sai todo dia voando
                                D
Ele acha o bando some e vai embora

Meu bem não deixe seu passarinho
     C
Livremente sozinho porque
    G                   C               G
Qualquer hora eu posso voar e nunca mais voltar
     D         G
Você vai me perder
    G                   C                  G
Qualquer hora eu posso voar e nunca mais voltar
     D         G
Você vai me perder

( G  D  C  D  G  G  D  C  G  D  G )

G              C      G
Meu bem se eu fosse você
             C           G
Me segurava mais em seus braços
                C       G
Não me deixava sair sozinho
       C        G               D
Igual ave sem ninho voando no espaço

Posso encontrar alguém lá fora

E fazer tudo que você faz
                           C
Eu sou manso mais tenho instinto
           G         D         G
Eu posso voar não voltar nunca mais

( C  D  G )

G                     D
O passarinho quando acostuma
        C
Viver longe da sua gaiola
G
E que sai todo dia voando
                                D
Ele acha o bando some e vai embora

Meu bem não deixe seu passarinho
     C
Livremente sozinho porque
    G                   C               G
Qualquer hora eu posso voar e nunca mais voltar
     D         G
Você vai me perder
    G                   C               G
Qualquer hora eu posso voar e nunca mais voltar
     D         G
Você vai me perder

( G  D  D/F#   G )

E|-7---7-7-10-12--14-----14--14-14-12--12----12--12--12-8--7-------5/7----|
B|-8--8-8--12-13--15---15--15---15-13--15--15--15----13-10-8-----8-7/8----|
G|-0-0------------14-14----------------0--0-------------------4/7---------|
D|------------------------------------------------------------------------|
A|------------------------------------------------------------------------|
E|------------------------------------------------------------------------|
Acordes para:
    Composição: André e Andrade e Luiz RosaColaboração e revisão:
    • Jose Lanzarin
    • Tiago Batista
    • darlei santos

    0 comentários

      mostrar mais comentários

      Conseguiu tocar?

      2tocaram2ainda não

      Grave um vídeo tocando Passaro Sem Ninho e mande pra gente!

      00:00 / 00:00
      outros vídeos desta música
      repetirqualidadeAutomático
      Outro vídeos desta música
        00:00 / 00:00
        OK