Cifra Club

Pela Fé

André Valadão

Cifra: Principal (violão e guitarra)
exibições 763.981
Tom: F
[Intro]

E|---8-8-8-6-6-6-6-6--------------------|  
B|--------------------------------------|
G|--------------------------------------|
D|--------------------------------------|
A|--------------------------------------|
E|--------------------------------------|
                          
E|---8-8-8-6-6/-------------------------|
B|--------------------------------------|
G|--------------------------------------|
D|--------------------------------------|
A|--------------------------------------|
E|--------------------------------------|
 
 F                Dm
Pela fé posso clamar
 Bb                 C
Pela fé posso enxergar
 F               Dm
Pela fé posso tocar
 Bb       C
Pela fé, pela fé
 
 Bb   C      Dm
Não  há   muralhas
         Bb
Que ficarão de pé
     C     Dm
Diante de mim  
                 
E|--------------------------------|
B|--------------------------------|
G|---------3----------------------|           
D|-3-3-2---3----------------------|
A|-------3-1----------------------|
E|--------------------------------|

Bb  C      Dm
Es-tou firmado em Cristo
  Bb        C
Pra sempre tenho
   Dm
A luz em mim, aleluia

E|---8-8-8-6-6-6-6-6-------------|
B|-------------------------------|
G|-------------------------------| 
D|-------------------------------|
A|-------------------------------|
E|-------------------------------|
                          
E|---8-8-8-6-6/------------------|
B|-------------------------------|
G|-------------------------------|
D|-------------------------------|
A|-------------------------------|
E|-------------------------------|

 F             Dm
Pela fé posso mudar
 Bb                 C
Pela fé posso alcançar
 F               Dm
Pela fé posso viver
 Bb         C
Pela fé, pela fé

 Bb   C      Dm
Não  há   muralhas
         Bb
Que ficarão de pé
  C     Dm
Diante de mim   
                
E|------------------------------|
B|------------------------------|
G|---------3--------------------|           
D|-3-3-2---3--------------------|
A|-------3-1--------------------|
E|------------------------------|

F  Dm  Bb  C  F

0 comentários

mostrar mais comentários

Conseguiu tocar?

87 tocaram 1 ainda não

Grave um vídeo tocando Pela Fé e mande pra gente!

00:00 / 00:00
outros vídeos desta música
repetir qualidade Automático
Outro vídeos desta música
00:00 / 00:00
Automático
OK