Cifra Club

Soy tuyo

Andrés Calamaro

Cifra: Principal (violão e guitarra)
exibições 412
Tom: Em
E|-5h7---7h5---5--3s5--5s7-------------------------------|
B|-----------8-------------8-5---------------------------|
G|------------------------------4-4-4-4-7-4-5h4-4-2-0--0-|
D|-------------------------------------------------------|
A|-------------------------------------------------------|
E|-------------------------------------------------------|

E|------------------------------10s12--------------------|
B|---3-3h5-5-3-2----------------10s12--10s12s10----------|
G|-----------------2h4-2-2-------------9s11s9------------|
D|-------------------------------------------------------|
A|-------------------------------------------------------|
E|-------------------------------------------------------|

    G                       D/F#
Me gusta desarmarme arriba tuyo
    B7                   Em
Me gusta demasiado ensusiarte
   C               G
Besar tu flor, inmediata
   A                D
Besarte atras, y adelante

    G                    D/F#
Me gusta tanto que me encante
      B7                 Em
Que quiero hasta la locura
      C                           G
Desarmarme en el vaivén de tu cintura
   A                            D
Remar sobre tu espalda y naufragarte

     G              D/F#
Soy tuyo, con mi mayor convicción,
     B7                Em
Soy tuyo con toda la fuerza de mi corazón,
        C            G
Que es tuyo, y como cada pensamiento mío,
    A          D
Es tuyo , soy tuyo

     G              D/F#
Soy tuyo, con mi mayor convicción,
     B7                Em
Soy tuyo con toda la fuerza de mi corazón,
        C            G
Que es tuyo, y como cada pensamiento mío,
    A          D
Es tuyo ,             sooooy tuyo

E|-------------------------------------------------------|
B|--------3---3---3----3s7-7-7---------------------------|
G|---2h4----4---4---4-----------4h2h0-0-0--4-0-----------|
D|---------------------------------------------2-2-------|
A|-------------------------------------------------------|
E|-------------------------------------------------------|

E|-----------------------------33------------------------|
B|--------------1s3--1----3-5----------------------------|
G|------0-2-0--0-----------------------------------------|
D|--0h2--------------------------------------------------|
A|-------------------------------------------------------|
E|-------------------------------------------------------|

    G                       D/F#
Me gusta desarmarme arriba tuyo
    B7                   Em
Me gusta demasiado ensusiarte
   C               G
Besar tu flor, inmediata
   A                D
besarte atras, y adelante

    G                    D/F#
Me gusta tanto que me encante
      B7                 Em
Que quiero hasta la locura
      C                           G
Desarmarme en el vaivén de tu cintura
   A                            D
Remar sobre tu espalda y naufragarte

     G              D/F#
Soy tuyo, con mi mayor convicción
     B7                Em
Soy tuyo con toda la fuerza de mi corazón
        C            G
Que es tuyo, y como cada pensamiento mío
    A          D
Es tuyo , soy tuyo

     G              D/F#
Soy tuyo, con mi mayor convicción
     B7                Em
Soy tuyo con toda la fuerza de mi corazón
        C            G
Que es tuyo, y como cada pensamiento mío
    A          D
Es tuyo ,  soy tuyo
Acordes para:
    Composição: Andrés Calamaro / Joaquín Sabina / Miguel Cantilo Colaboração e revisão:
    • Jose Timaran

    0 comentários

    mostrar mais comentários

    Conseguiu tocar?

    0 tocaram 0 ainda não

    Grave um vídeo tocando Soy tuyo e mande pra gente!

    00:00 / 00:00
    outros vídeos desta música
    repetir qualidade Automático
    Outros vídeos desta música
    00:00 / 00:00
    Automático
    OK