Cifra Club

Condenados a vivir

Angeles Del Infierno

Cifra: Principal (violão e guitarra)
tom: F#m

INTRO.....
E|--------------------------------------------------------------|
B|--------------------------------------------------------------|
G|------7/10--7~------------------------------------------------|
D|-9~------------10-9-7-----------------------------------------|
A|-7~-------------------10-8-7----------------------------------|
E|---------------------------10-9--7br(9)~~~~----9|
/0---------

Riff A
E|-------x| calculenle, con el verso
E|-----------------|--------------------------|
B|-----------------|--------------------------|
G|-----------------|--------------------------|
D|-7/-999-999-999--|--------------------------|
A|-5/-777-777-777--|--------------------------|
E|-----------------|--------------------------|

Riff B
E|-------------------------------------------|
B|-------------------------------------------|
G|-------------------------------------------|
D|-7~-/-5~-555-555-555--5~-555---------------|
A|-5~-/-3~-333-333-333--7~-777---------------|
E|-------------------------------------------|

Chorus
E|----------------------------x3|
E|----------------------------|---------------------|
B|----------------------------|---------------------|
G|----------------------------|------------2~-------|
D|-9~---7~---7-5--------------|--5~---4~---2~-------|
A|-7~---5~-------7-5----------|--3~---2~---0~-------|
E|-------------------7br~~~---|---------------------|

Solo 1
E|---------------------------------------------------|-----------------|
B|------------11| ----9--9-9-9-9------7b9~----------|-9--9-9-9-9-----
G|------------12| -----10101010p7--------10-10-10-|--10101010----
D|---------------------------------------------------|-----------------|
A|---------------------------------------------------|-----------------|
E|-3br~~~~-------------------------------------------|-----------------|

E|------------------------------------------ah.ah.ah.ah.ah.--|----|
B|----------7-9b-----------(11)-11111111---10-10-10-10-10---|----|
G|------7-9------10-10-10--(13)-13131313--------------------|----|
D|-9-10------------------------------------------------------|----|
A|-----------------------------------------------------------|----|
E|-----------------------------------------------------------|----|

E|---------------------------------------|------------------------------------|
B|---------------------------------------|------------------------------------|
G|-12-11-9----9--------------------------|-------------------------10-11-12---|
D|---------12----12-11-9-----9-(11)br~~~-|----------------9-10-12-------------|
A|------------------------12-------------|-9\0~--9-11-12---------------------|
E|---------------------------------------|------------------------------------|

E|----ah.--|-8--(10)br-ho| ld bend-10b-10b-10b-----8--(10)br--10b-10b---ah.--10b-10-10~~--
B|-10-12---|-10-(12)br-----------12b-12b-12b-----10-(12)br--12----12b-(12)-12b----12~~--|
G|---------|------------------------------------------------------------------------------|
D|---------|------------------------------------------------------------------------------|
A|---------|------------------------------------------------------------------------------|
E|---------|------------------------------------------------------------------------------|

                              ah.
E|-8--(10)b-10-11-11-11-11b12-10--ah.ah.------ah.-ah.----ah.---------------|
B|-10-(12)b-12-13-13-13-----------12-10--ah.--10--12--12p10--(13)br~-------|
G|----------------------------------------11--------------------------------|
D|--------------------------------------------------------------------------|
A|--------------------------------------------------------------------------|
E|--------------------------------------------------------------------------|

            ah.ah.
E|-9------7b-8b-10b---10p8p7------------------------------------------------------|
B|-8b-10b---------------------(10)br~---10--9--7b-----------(70br~~~----/////0~---|
G|--------------------------------------------------10b-9br~----------------------|
D|--------------------------------------------------------------------------------|
A|--------------------------------------------------------------------------------|
E|--------------------------------------------------------------------------------|

Solo2
E|--------------------------------------------------------------------------------|
B|--------------------------------10h12p10-10h13p10p10h13p10-10h12p10--10h12p13~--|
G|-------10h12p10-10h13p10-12p10--------------------------------------------------|
D|-9h12---------------------------------------------------------------------------|
A|--------------------------------------------------------------------------------|
E|--------------------------------------------------------------------------------|

E|-10h13p10-10h13p10------10h12p10-10h13p10---10h12p10h13p12p10-10h13p12----------|
B|-------------------13~--------------------13---------------------------13-------|
G|--------------------------------------------------------------------------------|
D|--------------------------------------------------------------------------------|
A|--------------------------------------------------------------------------------|
E|--------------------------------------------------------------------------------|

E|-10p13-10p12-10p11-10p13-10p11-10p12-10p12--------------ah.---------------------|
B|--------------------------------------------13--(12)b~--12--10b-9b------10p9----|
G|-------------------------------------------------------------------(12)---------|
D|--------------------------------------------------------------------------------|
A|--------------------------------------------------------------------------------|
E|--------------------------------------------------------------------------------|

E|-------------------------------------------------------------------------------|
B|-------------------------------------------------------------------------------|
G|-10h12p10--9h10p9-9h10p9-9h10p9--------------9b10h12p10p9----------------------|
D|------------------------------------9-10-12----------------12-11-9~------------|
A|--------------------------------12---------------------------------------------|
E|-------------------------------------------------------------------------------|

E|--------------------------------------|
B|--------------------------------------|
G|--------------------------------------|
D|-----------9--------------------------|
A|-12-10-9/-(7)b~~~~~~~------| end.......-
E|--------------------------------------|

Outro
E|-------------------------------------------------|
B|-------------------------------------------------|
G|-----------------2~----------------9~------------|
D|--6~---5~---4~---2~----------------9~------------|
A|--4~---3~---2~---0~----------------7~------------|
E|------------------------9|
/0-------------------


Letras;

En la ??????? ?????? te incinua,
No me des cosas que nunca mencionas,
Controlais con cualquier situacion,
Y con dinero todo se ha reglara,
Amenasais contra la destruccion,
Y al mismo tiempo lo sabrais de paz,
Oh si sacais de cualquier color,
Te va asustar, lo importante es ganar,
Dinero y ganas de poder.

Enganais,
Controlais,
Amenasais,
Condenais, ha vivir.

Castigais sin pena y piedad,
Y si le va usted car pagarais,
Condenais la imaginacion,
Solo vosotros pensais por los de mas,
Si al cobrarme obseden piedad,
Falsas promesas todo lo cargaran,
Oh si tratais de cualquier color,
Te va asustar, lo importante es ganar,
Dinero y ganas de poder.


Enganais,
Controlais,
Amenasais,
Condenais, ha vivir.

Solo 1


Enganais,
Controlais,
Amenasais,
Condenais,

Enganais,
Controlais,
Amenasais,
Condenais, ha vivir.

Solo 2

Ahhhohhhhhhahhhhhhh ...............

E|------------------------------------------------------------------------------|
Pues esa es toda la rola. Hay nomas sigan la progression me dio
gueva acomodarla pero
esta bien facil seguir orale perros.
Espero que les guste y que se oiga mas o menos.
Solo recuerden que 'The Metal Fucking Rules'.............
Saludos desde Los Angeles CA.  Diganme sus preguntas o reacciones
de las rolas que saco.
Edgar Corona: Mandenme sus peticiones culeros, yo se las saco
de cualquier banda
de metal nada de pop o rap puro metal.
Comunicarse con el 'Metal God' at;
Composição de Don't care
    • ½ Tom
    • Am
    • Bbm
    • Bm
    • Cm
    • C#m
    • Dm
    • Ebm
    • Em
    • Fm
    • F#m
    • Gm
    • G#m
  • Adicionar à lista

    0 comentários

    Ver todos os comentários

    Conseguiu tocar?

    0 Tocaram 0 Ainda não

    Grave um vídeo tocando Condenados a vivir e nos envie!

    00:00 / 00:00
    Outros vídeos desta música
    Repetir Qualidade Automático
    Outros vídeos desta música
    00:00 / 00:00
    Automático

    Cifra Club Pro

    Aproveite o Cifra Club com benefícios exclusivos e sem anúncios
    Cifra Club Pro
    Aproveite o Cifra Club com benefícios exclusivos e sem anúncios
    OK